Bread - If Chords & Tabs

 

If Chords & Tabs

Bread Chords & Tabs

Version: 3 Type: Tab 0 ratings
1 star 2 stars 3 stars 4 stars 5 stars
comments

If Tab

##################################################################################
# This file is the author's own work and represents their interpretation of the  #
# song. You may only use this file for private study, scholarship, or research.  #
##################################################################################

IF
Bread

johnsantos_17@yahoo.com

Standard Tuning:(EADGBE)

Intro:RIFF 1

|------0-----0-----|------0-----0-----|------0------0----|------0-----0-----|
|--0-----0-----0---|--0-----0-----0---|--0-----0------0--|--0-----0-----0---|
|----6-----6-------|----4-----4-------|----4-----4-------|----2-----2-------|
|7-----------------|6-----------------|5-----------------|4-----------------|
|------------------|------------------|------------------|------------------|
|------------------|------------------|------------------|------------------|
[ Tab from: http://www.guitartabs.cc/tabs/b/bread/if_tab_ver_3.html ]
|------0-----0----|------0-----0-----|------1-----1-----|
|--3-----3-----3--|--2-----2-----2---|--0-----0-----0---|
|----2-----2------|----2-----2-------|----2-----2-------|
|3----------------|2-----------------|0-----------------|
|-----------------|------------------|------------------|                
|-----------------|------------------|------------------|

Lead-in I:Lead-in II:
|--------0-(hold)|                |--------0-------|
|------3---------|                |------3---3-----|
|----1-----------|                |----1-------1---|
|--2-------------|                |--2------------2|
|----------------|                |----------------|
|0---------------|                |0---------------|

VERSE:RIFF 1

Chorus: RIFF 2
CHORUS:RIFF 2

Ending:                                
|-----------------|------0-----0-----|--------0---------|--------0----------|
|--------3--------|--0-----0-----0---|------------0-----|------------0------|
|------2----------|----6-----6-------|--7---------------|--7----------------|
|----2------------|7-----------------|----7-----7---7---|----7-----7---7----|
|--2--------------|------------------|9-----9-----------|8-----8------------|
|0----------------|------------------|------------------|-------------------|
"fly...........a--way.............................................."

|-0-------|
|-2-------|
|-2-------|
|-2-------|
|-0-------|
|-0-------|


=====¤w&_17=====


                 
Comments