Bread - If Chords & Tabs

 

If Chords & Tabs

Bread Chords & Tabs

Version: 1 Type: Tab 1 rating
1 star 2 stars 3 stars 4 stars 5 stars
comments

If Tab

   
Artist:Bread
Song: If
Tabbed by: Philip Sabio

Intro/Verse

 A                                          AM7
E----------------------0----------------0--|------------------0-----------0----
B-----------------2---------2--------------|--------------2------2-------------
G-----------2--------------------2---------|---------1---------------1---------
D------2-----------------------------------|-----2-----------------------------
A--0---------------------------------------|--0--------------------------------
E------------------------------------------|-----------------------------------

[ Tab from: http://www.guitartabs.cc/tabs/b/bread/if_tab.html ]
 A7                                         D
E----------------------0----------------0--|-----------------2-----------2-----
B----------------2-----------2-------------|--------------3------3-------------
G-----------0---------------------2--------|----------2--------------2---------
D------2-----------------------------------|------0----------------------------
A--0---------------------------------------|--0--------------------------------
E------------------------------------------|-----------------------------------

 Dm                                         A
E----------------------1----------------1--|-------------------0------------0--
B----------------3-----------3-------------|---------------2-------2-----------
G-----------2---------------------2--------|-----------2---------------2-------
D------0-----------------------------------|-------2---------------------------
A--0---------------------------------------|---0-------------------------------
E------------------------------------------|-----------------------------------

 
 E
E-----------------------0------------------
B-----------------0------------------------
G-----------1------------------------------
D------2-----------------------------------
A--2---------------------------------------
E------------------------------------------  End of Intro then play it again for the verse



Send any question or correction to khdmp@yahoo.com E-mail me.
Comments