Bread - Aubrey Chords & Tabs

 

Aubrey Chords & Tabs

Bread Chords & Tabs

Version: 1 Type: Tab 1 rating
1 star 2 stars 3 stars 4 stars 5 stars
comments

Aubrey Tab

#----------------------------------PLEASE NOTE---------------------------------#
#This file is the author's own work and represents their interpretation of the #
#song. You may only use this file for private study, scholarship, or research. #
#------------------------------------------------------------------------------#
AUBREY
BY: BREAD

updated: 26 Feb 95

4/4
INTRO:
|----3-------5---|----3-------2---|----0-------0---|----0--------0---|
|----3-------3---|----0-------0---|----1-------1---|----1--------1---|
|--4---4---4---4-|--0---0---0---0-|--0---0---0---0-|--0---0----0---0-|
|5-------4-------|2-------0-------|----------------|---------0-------|
|----------------|----------------|3-------2-------|0----------------|
|----------------|----------------|----------------|-----------------|

VERSE:
|----3-------3---|----3-------2---|----2-------0---|----0--------0---|
|----0-------0---|----0-------0---|----0-------0---|----1--------1---|
|--0---0---0---0-|------0---0---0-|--0---0---0---0-|--0---0----0---0-|
|----------------|--2-----1-------|0---------------|-----------------|
|----------------|----------------|--------4-------|3--------3-------|
|3-------2-------|0---------------|----------------|-----------------|

|----3-------2---|
|----3-------3---|
|--0---0---0---0-|
|----------------|
|2-------2-------| 
|----------------|

CHORUS I:
|----0-------2---|----0-------2---|----0--------2---|
|----1-------0---|----1-------3---|----1--------0---|
|--0---0---0---0-|--0---0---0---0-|--0---0----0---0-|
|----------------|----------------|-----------------|
|0-------2-------|3-------2-------|0--------2-------|
|----------------|----------------|-----------------|
[ Tab from: http://www.guitartabs.cc/tabs/b/bread/aubrey_tab.html ]
ENDING I:
|----0-------0---|----0---3---2---|
|----1-------0---|----1---1---1---|
|--0---0---0---0-|--2---2---2-----|
|----------------|0---------------|
|3-------4-------|----------------|
|----------------|----------------|

ENDING II:
|----0-------0---|----------------|
|----1-------0---|----3-----3-----|
|--0---0---0---0-|--4-----4-----4-|
|----------------|0-----0-----0---|
|3-------4-------|----------------|
|----------------|----------------|

CHORUS II:
|----------------|----------------|----------------|----3-------3---|
|----0-----0-----|----0-----0-----|--3-------3-----|--1-------1---1-|
|--2-----2-----2-|--0----------(0)|-------------(0)|----------------|
|1-----1-----1---|2-------2---2---|3---3---3---3---|2-------2-------|
|----------------|----------------|----------------|----------------|
|----------------|------0---------|------3---------|------3---------|
                                    1-E3,2-D3,3-B3   Bar 1 @ 1st fret  
|----3-------3---|                           (fingerings)
|--1-------1---1-|
|----------------|                        
|1-------1-------|
|----------------|
|------3---------|

AUBREY
CHORUS III:
|----------------|----------------|----------------|----------------|
|----0-----0-----|----0-----0-----|--3-------3-----|------------1---|
|--2-----2-----2-|--0----------(0)|-------------(0)|--0-------0---0-|
|1-----1-----1---|2-------2---2---|3----3--3---3---|2---2---2-------|
|----------------|----------------|----------------|----------------|
|----------------|------0---------|------3---------|------3---------|
        
|----------------|----------------|  
|-(1)------------|----------------|
|----- ----------|0---------------|     
|1--(1)----1-----|0---------------|
|----------------|----------------|
|------3---------|3---------------|

INTRO ONCE, NO LYRICS
INTRO:
And Aubrey was her name
A not so very ordinary girl or name


I think its a very relaxing piece, Thanks for the other Bread tunes (Mike).

Ken Morris,
mrwales@aol.com
mrwales@dump.com
Comments