Bread - Aubrey Chords & Tabs

 

Aubrey Chords & Tabs

Bread Chords & Tabs

Version: 2 Type: Bass Tab 0 ratings
1 star 2 stars 3 stars 4 stars 5 stars
comments

Aubrey Bass Tab

|--------------------------------------------------------------------------|
|--------------------------- AUBREY - BREAD--------------------------------|
|--------------------------------------------------------------------------|

Tabbed By : Jbassist
e-mail: jb_flip@hotmail.com

*This is my first tab, so it may not sound right.... enjoy playing!

Tuning: *standard tuning*

-Intro-

G|----------|-----------|-----------|-----------|-----------|-------------|
D|----------|-----------|-----------|-----------|-----------|-------------|
A|----------|-----5-----|-----------|--3-2------|-----------|-------------|
E|----3-----|-----------|-----------|-------3---|------0----|----3-3-5--0-|


[Verse]
G|----------|-----------|-----------|-----------|
D|----------|-----------|-----------|-----------|
A|----------|-----------|-----------|-----5-----|
E|-----3----|-----2-----|-----0-----|-----------|

And Aubrey was her name...


G|----------|-----------|-----------|-----------|-----------|----------|
D|----------|-----------|-----------|-----------|-----------|----------|
A|-----3----|-----2-----|-----------|-----5-----|-----------|----------|
E|----------|-----------|-----5-----|-----------|------3----|----2-----|

A not so very ordinary girl...
(We tripped the light...) [Verse #2]
(I never knew her but I loved her ...) [Verse #3]
[ Tab from: http://www.guitartabs.cc/tabs/b/bread/aubrey_btab_ver_2.html ]
G|----------|-----------|-----------|
D|----------|-----------|-----------|
A|----------|-----5-----|-----------|
E|----0-----|-----------|-----3-----|

For a love that wouldn't bloom...
(No it never came around...) [Verse #2]
(Wished that I...)[Verse #3]

G|----------|-----------|-----------|-----------|
D|----------|-----------|-----------|-----------|
A|-----3----|-----------|-----5-----|-----------|
E|----------|-----3-----|-----------|------3----|

For the hearts...
(If it did it never made a sound) [Verse #2]
(And the reasons that would make her stay)[Verse #3]

G|----------|-----------|----------|-----------|----------|----------------|--------------|-------------|
D|----------|-----------|----------|-----------|----------|----------------|--------------|-------------|
A|----3-----|-----------|-----3----|-----------|----3-----|-------5--------|-------6------|----7--(7)---|
E|----------|-----3-----|----------|-----3-----|----------|----------------|--------------|-------------|

Like a lovely melody that everyone can sing...
(Maybe I was absent...)[Verse #2]
(I have learned to lead a life apart from all the rest)[Verse #3]


G|----------|-----------|
D|----------|-----------|
A|----2-----|-----2-----|
E|----------|-----------|

And God, I miss the girl...
(And how I miss the girl...)

G|----------|-----------|----------|--------------|
D|----------|-----------|----------|--------------|
A|----------|-----3-----|-----5----|--------------|
E|----3-----|-----------|----------|-----3---(3)--|

And I'd go...                            Closer to her than to me
					 (She had been mine for a day.)
Comments