Brass Munk - El Dorado Chords & Tabs

 

El Dorado Chords & Tabs

Brass Munk Chords & Tabs

Version: 1 Type: Tab 0 ratings
1 star 2 stars 3 stars 4 stars 5 stars
comments

El Dorado Tab

Song Name: El Dorado
Artist: Brass Munk
Transcriber: Cam Muirhead (outkast_411@hotmail.com)

Okay this is my first time tabbing a song out. I've looked for this song on a couple sites and couldn't find it so I
decided I'd try to do it myself. This is all done by ear so it may not be completely accurate. If you have any feedback
or corrections, please e-mail me at outkast_411@hotmail.com and I'll fix it up.
Enjoy.
[ Tab from: http://www.guitartabs.cc/tabs/b/brass_munk/el_dorado_tab.html ]
   This is played during the verses
E--------------------------------------------------------------
B--------------------------------------------------------------
G--------------------------4-2-0-2----0------------------------
D-------1-2---5-4-2-4-2------------2----4-2-4-2-------4-2---4--
A----2---------------------------------------------------------
E--------------------------------------------------------------

  Riff at the end of each verse
E---------------------------------
B---------------------------------
G---2--4--2--5--4--7--5--9-9-9----
D---------------------------------
A---------------------------------
E---------------------------------

These are just repeated pretty much throughout the song. I highly suggest you listen to the song to figure out
the timing of playing each parts.
Once again if you have suggestions or feedback please send them to me at outkast_411@hotmail.com
Thanks
Comments