Brand New Sin - Wyoming Chords & Tabs

 

Wyoming Chords & Tabs

Brand New Sin Chords & Tabs

Version: 1 Type: Tab 0 ratings
1 star 2 stars 3 stars 4 stars 5 stars
comments

Wyoming Tab

   
ARTIST:BRAND NEW SIN
SONG: WYOMING
ALBUM: RECIPE FOR DISASTER
Tabbed by:TERRY FREEMER
Email:flay_victus@yahoo.com

Tuning:c,g,c,f,a,d (drop d tuning)
[ Tab from: http://www.guitartabs.cc/tabs/b/brand_new_sin/wyoming_tab.html ]
4/4
RIFF 1A                      RIFF 1B
D|---------|----------|     |---------|--------------------------|
A|---------|----------|     |---------|--------------------------|
F|---2-----|------0---|     |---2-----|---0--------0---0-------0-|
C|---------|----------| 3X  |---------|--------------------------| 1X
G|-----3---|--------1-|     |-----3---|-----1--1/3---1---1-1/3---|
C|-0-------|----0-----|     |-0-------|-0------------------------|

RIFF 1B 2X
RIFF 1A 1X
RIFF 1B 1X

RIFF 2 (CHORUS)
D|--------|----------------------------|
A|--------|----------------------------|
F|--------|----------------------------|
C|---5/7--|-5/7-5----------------------| 2X
G|-0-3/5--|-3/5-3-----0-3-5--3-5-5-5-3-|
C|-0------|-----------0-3-5--3-5-5-5-3-|

RIFF 1B 2X
RIFF 1A 1X
RIFF 1B 1X
RIFF 2 4X

RIFF 3 (BRIDGE)
D|-----|-----|-----|-----|
A|-----|-----|-----|-----|
F|--7--|--5--|--4--|--3--|
C|--7--|--5--|--3--|--3--| 2X
G|--5--|--3--|--2--|--1--|
C|--0--|-----|-----|-----|

RIFF 2 8X TO FADE

END OF SONG
Comments