Brand New - The Quite Things That No One Ever Knows Corrected Chords & Tabs

 

The Quite Things That No One Ever Knows Corrected Chords & Tabs

Brand New Chords & Tabs

Version: 1 Type: Tab

The Quite Things That No One Ever Knows Corrected Tab

this is my first tab, the other tabs for this song dont sound right 
at all to me so i decided to post this one
let me know how it works out for you
email me at guitarfoolno1@aol.com





[ Tab from: http://www.guitartabs.cc/tabs/b/brand_new/the_quite_things_that_no_one_ever_knows_corrected_tab.html ]
--3-----2--|---3p2----0---|---3p2---0---|----3-----2-----3~5-
----2-----3|--------3---3-|-------3---3-|------3-----3-------
------0----|--------------|-------------|--------2-----2-----
-----------|--------------|-------------|--0-----------------
-----------|--------------|-3-----------|--------------------
3----------|-0------------|-------------|--------------------


--------------------|
--------------------|
----------5----7----|
5----2----5----7----|
5----2----3----5----|
3----0--------------|   listen to the song for the rythm