Brand New - The Quiet Things That No One Knows Chords & Tabs

 

The Quiet Things That No One Knows Chords & Tabs

Brand New Chords & Tabs

Version: 1 Type: Tab 1 rating
1 star 2 stars 3 stars 4 stars 5 stars
comments

The Quiet Things That No One Knows Tab

   
Brand New - The Quiet Things That No One Knows
(track 5, second album)
Brand New is Jesse, Brian, Vinnie and Garret
Tabs done by Markeevus


intro(played in drop D)


E---------------------------------
B------7/6---6---------7/6--------
G---------------6------------8---6
D---------------------------------
A---------------------------------
D---4---------------1-------------


E-------------------------------------------
B-------7/6---6--------7/6---6---7---9--9---
G----------------6--------------------------
D-------------------------------------------
A---2----------------4----------------------
D-------------------------------------------

Lead guitar part

E--------------------9----------
B---6---7---6---7---------6----7
G-------------------------------
D-------------------------------
A-------------------------------
D------------------------------- x4

E----------------------14----------
B---11---12---11---12------11--12--
G----------------------------------
D----------------------------------
A----------------------------------
D---------------------------------- x2
[ Tab from: http://www.guitartabs.cc/tabs/b/brand_new/the_quiet_things_that_no_one_knows_tab.html ]
E--------------------9----------
B---6---7---6---7---------6----7
G-------------------------------
D-------------------------------
A-------------------------------
D------------------------------- x2

and then(by this time you should be in the second half of the chorus)

E--------------------9----------
B---6---7---6---7---------6----7
G-------------------------------
D-------------------------------
A-------------------------------
D------------------------------- x2

E----------------------14----------
B---11---12---11---12------11--12--
G----------------------------------
D----------------------------------
A----------------------------------
D---------------------------------- x2

E--------------------9----------
B---6---7---6---7---------6----7
G-------------------------------
D-------------------------------
A-------------------------------
D------------------------------- x2


E----------------------14----------
B---11---12---11---12------11--12--
G----------------------------------
D----------------------------------
A----------------------------------
D---------------------------------- x2






Comments