Brand New - The Quiet Things That No One Ever Knows Chords & Tabs

 

The Quiet Things That No One Ever Knows Chords & Tabs

Brand New Chords & Tabs

Version: 11 Type: Tab 0 ratings
1 star 2 stars 3 stars 4 stars 5 stars
comments

The Quiet Things That No One Ever Knows Tab

song: The Quiet Things That No One Ever Knows
artist: Brand New

good song to play on ur guitar, its not hard  but not a begginer song
this is my first tab ever   so i am not sure if it is 100% correct   so good luck with it


~ let ring
h hammer on
/ slide
x mute
. palmmute

tuning is flat


lead guitar  (intro)

e|---3h2-2~-------3h2-0~-------3h2-2~-------3h2-2--2h3/5--5-----|
B|---------3~-----------3~-----------3~-------------------------|
G|--------------------------------------------------------------|
D|-------------------------------------0~-----------------------|
A|-------------------------3~-----------------------------------|
E|-3~-----------0~----------------------------------------------|


e|--------10----------------10----------------10-----------------10-------|
B|-7-8-7-8---8-7-8---7-8-7-8---8-7-8---7-8-7-8----8-7-8---7-8-7-8---8-7-8-|
G|------------------------------------------------------------------------|
D|------------------------------------------------------------------------|
A|------------------------------------------------------------------------|
E|------------------------------------------------------------------------|

e|------------15-----------------------15---------------------------------| 
B|-12-13-12-13---13-12-13---12-13-12-13---13-12-13------------------------|
G|------------------------------------------------------------------------|
D|------------------------------------------------------------------------|
A|------------------------------------------------------------------------|
E|------------------------------------------------------------------------|

e|--------10----------------10----------------10-----------------10-------|
B|-7-8-7-8---8-7-8---7-8-7-8---8-7-8---7-8-7-8----8-7-8---7-8-7-8---8-7-8-|
G|------------------------------------------------------------------------|
D|------------------------------------------------------------------------|
A|------------------------------------------------------------------------|
E|------------------------------------------------------------------------|

e|------------15-----------------------15---------------------------------| 
B|-12-13-12-13---13-12-13---12-13-12-13---13-12-13------------------------|
G|------------------------------------------------------------------------|
D|------------------------------------------------------------------------|
A|------------------------------------------------------------------------|
E|------------------------------------------------------------------------|

e|--------10----------------10--------------------------------------------|
B|-7-8-7-8---8-7-8---7-8-7-8---8-7-8--------------------------------------|
G|------------------------------------------------------------------------|
D|------------------------------------------------------------------------|
A|------------------------------------------------------------------------|
E|------------------------------------------------------------------------|

e|------------15-----------------------15---------------------------------| 
B|-12-13-12-13---13-12-13---12-13-12-13---13-12-13------------------------|
G|------------------------------------------------------------------------|
D|------------------------------------------------------------------------|
A|------------------------------------------------------------------------|
E|------------------------------------------------------------------------|


rythem guitar (intro)    start playing after lead plays riff

e|----------------------------------------------------------------------|
B|----------------------------------------------------------------------|
G|----------------------------------------------------------------------|
D|----5-5-5-5-5-5-5-5-5-5-5-5-5-5-5-5--2-2-2-2-2-2-2-2-2-2-2-2-2-2-2-2--|
A|----5-5-5-5-5-5-5-5-5-5-5-5-5-5-5-5--2-2-2-2-2-2-2-2-2-2-2-2-2-2-2-2--|
E|----3-3-3-3-3-3-3-3-3-3-3-3-3-3-3-3--0-0-0-0-0-0-0-0-0-0-0-0-0-0-0-0--|

e|----------------------------------------------------------------------|
B|----------------------------------------------------------------------|
G|----5-5-5-5-5-5-5-5-5-5-5-5-5-5-5-5--7-7-7-7-7-7-7-7-7-7-7-7-7-7-7-7--|
D|----5-5-5-5-5-5-5-5-5-5-5-5-5-5-5-5--7-7-7-7-7-7-7-7-7-7-7-7-7-7-7-7--|
A|----3-3-3-3-3-3-3-3-3-3-3-3-3-3-3-3--5-5-5-5-5-5-5-5-5-5-5-5-5-5-5-5--|
E|----------------------------------------------------------------------|


lead guitar (verse)   u have to pay attention to no where to come in

e|--------------------|
B|--------------------|
G|-----12---11---12---| 
D|------x----x----x---|  
A|-----10----9---10---|
E|--------------------|


rythem guitar (verse) not exact amount or nething

e|-------------------------------------------------------------------------|
B|-------------------------------------------------------------------------|
G|-------------------------------------------------------------------------|
D|----------------------------------------5-5-5-5-5-5-5-5-5-5-5-5-5-5-5-5--|
A|-5-5x----5-5-5-5-5-5-5-5-5-5-5-5-5-5-5--3-3-3-3-3-3-3-3-3-3-3-3-3-3-3-3--|
E|-3-3x--9/3-3-3-3-3-3-3-3-3-3-3-3-3-3-3-----------------------------------|
            ...............................  ...............................
e|----------------------------------------------------------------------|
B|----------------------------------------------------------------------|
G|----------------------------------------------------------------------|
D|-------------------------------------5-5-5-5-5-5-5-5-5-5-5-5-5-5-5-5--|
A|----2-2-2-2-2-2-2-2-2-2-2-2-2-2-2-2--3-3-3-3-3-3-3-3-3-3-3-3-3-3-3-3--|
E|----0-0-0-0-0-0-0-0-0-0-0-0-0-0-0-0-----------------------------------|
      ...............................  ...............................


lead guitar (chorus)

e|--------10----------------10----------------10-----------------10-------|
B|-7-8-7-8---8-7-8---7-8-7-8---8-7-8---7-8-7-8----8-7-8---7-8-7-8---8-7-8-|
G|------------------------------------------------------------------------|
D|------------------------------------------------------------------------|
A|------------------------------------------------------------------------|
E|------------------------------------------------------------------------|

e|------------15-----------------------15---------------------------------| 
B|-12-13-12-13---13-12-13---12-13-12-13---13-12-13------------------------|
G|------------------------------------------------------------------------|
D|------------------------------------------------------------------------|
A|------------------------------------------------------------------------|
E|------------------------------------------------------------------------|

e|--------10----------------10----------------10-----------------10-------|
B|-7-8-7-8---8-7-8---7-8-7-8---8-7-8---7-8-7-8----8-7-8---7-8-7-8---8-7-8-|
G|------------------------------------------------------------------------|
D|------------------------------------------------------------------------|
A|------------------------------------------------------------------------|
E|------------------------------------------------------------------------|
[ Tab from: http://www.guitartabs.cc/tabs/b/brand_new/the_quiet_things_that_no_one_ever_knows_tab_ver_11.html ]
e|------------15-----------------------15---------------------------------| 
B|-12-13-12-13---13-12-13---12-13-12-13---13-12-13------------------------|
G|------------------------------------------------------------------------|
D|------------------------------------------------------------------------|
A|------------------------------------------------------------------------|
E|------------------------------------------------------------------------|

e|--------10----------------10--------------------------------------------|
B|-7-8-7-8---8-7-8---7-8-7-8---8-7-8--------------------------------------|
G|------------------------------------------------------------------------|
D|------------------------------------------------------------------------|
A|------------------------------------------------------------------------|
E|------------------------------------------------------------------------|

e|------------15-----------------------15---------------------------------| 
B|-12-13-12-13---13-12-13---12-13-12-13---13-12-13------------------------|
G|------------------------------------------------------------------------|
D|------------------------------------------------------------------------|
A|------------------------------------------------------------------------|
E|------------------------------------------------------------------------|


rythem guitar (chorus)

e|----------------------------------------------------------------------|
B|----------------------------------------------------------------------|
G|----------------------------------------------------------------------|
D|----5-5-5-5-5-5-5-5-5-5-5-5-5-5-5-5--2-2-2-2-2-2-2-2-2-2-2-2-2-2-2-2--|
A|----5-5-5-5-5-5-5-5-5-5-5-5-5-5-5-5--2-2-2-2-2-2-2-2-2-2-2-2-2-2-2-2--|
E|----3-3-3-3-3-3-3-3-3-3-3-3-3-3-3-3--0-0-0-0-0-0-0-0-0-0-0-0-0-0-0-0--|

e|----------------------------------------------------------------------|
B|----------------------------------------------------------------------|
G|----5-5-5-5-5-5-5-5-5-5-5-5-5-5-5-5--7-7-7-7-7-7-7-7-7-7-7-7-7-7-7-7--|
D|----5-5-5-5-5-5-5-5-5-5-5-5-5-5-5-5--7-7-7-7-7-7-7-7-7-7-7-7-7-7-7-7--|
A|----3-3-3-3-3-3-3-3-3-3-3-3-3-3-3-3--5-5-5-5-5-5-5-5-5-5-5-5-5-5-5-5--|
E|----------------------------------------------------------------------|


repeat verse

then

repeat chorus


leag guitar  (bridge)

e|---3h2-2~-------3h2-0~-------3h2-2~-------3h2-2--2h3/5--5-----|
B|---------3~-----------3~-----------3~-------------------------|
G|--------------------------------------------------------------| Play 4x's
D|-------------------------------------0~-----------------------|
A|-------------------------3~-----------------------------------|
E|-3~-----------0~----------------------------------------------|

e|--------10----------------10----------------10-----------------10-------|
B|-7-8-7-8---8-7-8---7-8-7-8---8-7-8---7-8-7-8----8-7-8---7-8-7-8---8-7-8-|
G|------------------------------------------------------------------------|
D|------------------------------------------------------------------------|
A|------------------------------------------------------------------------|
E|------------------------------------------------------------------------|

e|------------15-----------------------15---------------------------------| 
B|-12-13-12-13---13-12-13---12-13-12-13---13-12-13------------------------|
G|------------------------------------------------------------------------|
D|------------------------------------------------------------------------|
A|------------------------------------------------------------------------|
E|------------------------------------------------------------------------|

e|--------10----------------10----------------10-----------------10-------|
B|-7-8-7-8---8-7-8---7-8-7-8---8-7-8---7-8-7-8----8-7-8---7-8-7-8---8-7-8-|
G|------------------------------------------------------------------------|
D|------------------------------------------------------------------------|
A|------------------------------------------------------------------------|
E|------------------------------------------------------------------------|

e|------------15-----------------------15---------------------------------| 
B|-12-13-12-13---13-12-13---12-13-12-13---13-12-13------------------------|
G|------------------------------------------------------------------------|
D|------------------------------------------------------------------------|
A|------------------------------------------------------------------------|
E|------------------------------------------------------------------------|

e|--------10----------------10--------------------------------------------|
B|-7-8-7-8---8-7-8---7-8-7-8---8-7-8--------------------------------------|
G|------------------------------------------------------------------------|
D|------------------------------------------------------------------------|
A|------------------------------------------------------------------------|
E|------------------------------------------------------------------------|

e|------------15-----------------------15---------------------------------| 
B|-12-13-12-13---13-12-13---12-13-12-13---13-12-13------------------------|
G|------------------------------------------------------------------------|
D|------------------------------------------------------------------------|
A|------------------------------------------------------------------------|
E|------------------------------------------------------------------------|


rythem guitar  (bridge)

e|-------------------------|
B|-------------------------|
G|----------------5~----7~-| Play 2x's
D|----5~----2~----5~----7~-|  
A|----5~----2~----3~----5~-|
E|----3~----0~-------------|

then play this 2x's

e|------------------------------------------------------------------| 
B|------------------------------------------------------------------|    
G|------------------------------------------------------------------|     
D|-5-5-5-5-5-5-5-5-5-5-5-5-5-5-5-5--2-2-2-2-2-2-2-2-2-2-2-2-2-2-2-2-|       
A|-5-5-5-5-5-5-5-5-5-5-5-5-5-5-5-5--2-2-2-2-2-2-2-2-2-2-2-2-2-2-2-2-|       
E|-3-3-3-3-3-3-3-3-3-3-3-3-3-3-3-3--0-0-0-0-0-0-0-0-0-0-0-0-0-0-0-0-|      
   ...............................  ...............................            
                                                                               
e|------------------------------------------------------------------|      
B|------------------------------------------------------------------|       
G|-5-5-5-5-5-5-5-5-5-5-5-5-5-5-5-5--7-7-7-7-7-7-7-7-7-7-7-7-7-7-7-7-|      
D|-5-5-5-5-5-5-5-5-5-5-5-5-5-5-5-5--7-7-7-7-7-7-7-7-7-7-7-7-7-7-7-7-|      
A|-3-3-3-3-3-3-3-3-3-3-3-3-3-3-3-3--5-5-5-5-5-5-5-5-5-5-5-5-5-5-5-5-|     
E|------------------------------------------------------------------| 
   ...............................  ...............................

then finish the bridge playing this

e|----------------------------------------------------------------------|
B|----------------------------------------------------------------------|
G|----------------------------------------------------------------------|
D|---5-5-5-5-5-5-5-5-5-5-5-5-5-5-5-5--2-2-2-2-2-2-2-2-2-2-2-2-2-2-2-2---|
A|----5-5-5-5-5-5-5-5-5-5-5-5-5-5-5-5--2-2-2-2-2-2-2-2-2-2-2-2-2-2-2-2--|
E|----3-3-3-3-3-3-3-3-3-3-3-3-3-3-3-3--0-0-0-0-0-0-0-0-0-0-0-0-0-0-0-0--|

e|----------------------------------------------------------------------|
B|----------------------------------------------------------------------|
G|----5-5-5-5-5-5-5-5-5-5-5-5-5-5-5-5--7-7-7-7-7-7-7-7-7-7-7-7-7-7-7-7--|
D|----5-5-5-5-5-5-5-5-5-5-5-5-5-5-5-5--7-7-7-7-7-7-7-7-7-7-7-7-7-7-7-7--|
A|----3-3-3-3-3-3-3-3-3-3-3-3-3-3-3-3--5-5-5-5-5-5-5-5-5-5-5-5-5-5-5-5--|
E|----------------------------------------------------------------------|


then repeat chorus

well there it is  have fun
Comments