Brand New - The Quiet Things That No One Ever Knows Chords & Tabs

 

The Quiet Things That No One Ever Knows Chords & Tabs

Brand New Chords & Tabs

Version: 1 Type: Tab 1 rating
1 star 2 stars 3 stars 4 stars 5 stars
comments

The Quiet Things That No One Ever Knows Tab

   
The guy that did this last was close... but no cigar... 
thought this isn't perfect, sounds pretty fuckin good to me.
to tune, the second single note he plays in the intro is an open E, 
Timing is simple, just listen to the song. go from there. 

p=pull
h=hold
/=slide up
=slide down
()=let note ring
[ Tab from: http://www.guitartabs.cc/tabs/b/brand_new/the_quiet_things_that_no_one_ever_knows_tab.html ]
INTRO
e--3p2-2------3p2-0h2--------3p2-2------3p2-2---2/5-5-----
B-----2-2------------2----------2-2--------2-2------------
G---------------------------------------------------------
D-------------------------------------0-------------------
A--------------------------3------------------------------
E-3-------0-----------------------------------------------

CHORDS (for verse and chorus)
G-------5--7--------
D-5--2--5--7--------
A-5--2--3--5--------
E-3--0--------------

Main Riff
e---------10------   ------------15------------   
B--7-8-7-8--8-7-8 X2 -12-13-12-13--13-12-13-12 X2 

Do the lead 3 times while the chords are being played.

Little breakdown before verse
D--4-4-----------
A--4-4-----(slide)------
E--2-2-----------
   x x
RiFF
D--3---4-
A----3---4- X3
E---------

Comments