Brand New - The No Seatbelt Song Chords & Tabs

 

The No Seatbelt Song Chords & Tabs

Brand New Chords & Tabs

Version: 4 Type: Tab

The No Seatbelt Song Tab

  intro and first verse:
e|--------------------------------------------------------------------------|
B|--------------------------------------------------------------------------|
G|--------------------------------------------------------------------------|
D|----5-------8-------5-----------------------------------------------------|
A|----3(x8)---6(x8)---3(x8)----6-------5-------8-------6-------8-------6----|
E|-----------------------------4(x4)---3(x4)---6(x8)---4(x8)---6(x8)---4----|
  This part repeats 3 times

  chorus:
e|------------------------|-------------------------------------------------|
B|------------------------|-------------------------------------------------|
G|------------------------|-------------------------------------------------|
D|-----5-----------8------|-------------------------------------------------|
A|-----3(x8)-------6(x8)--|----8--------------------------------------------|
E|------------------------|----6(x8)----------------------------------------|
  This part repeats 4x    |

  second verse
e|--------------------------------------------------------------------------|
B|--------------------------------------------------------------------------|
G|--------------------------------------------------------------------------|
D|----5-------8-------5-----------------------------------------------------|
A|----3(x8)---6(x8)---3(x8)----6-------5-------8-------6-------8-------6----|
E|-----------------------------4(x4)---3(x4)---6(x8)---4(x8)---6(x8)---4----|
  This part repeats 2 times
[ Tab from: http://www.guitartabs.cc/tabs/b/brand_new/the_no_seatbelt_song_tab_ver_4.html ]
  chorus:
e|------------------------|-------------------------------------------------|
B|------------------------|-------------------------------------------------|
G|------------------------|-------------------------------------------------|
D|-----5-----------8------|-------------------------------------------------|
A|-----3(x8)-------6(x8)--|----8--------------------------------------------|
E|------------------------|----6(x40)---------------------------------------|
  This part repeats 8x    |

  riff:
e|----------------------------------------------------------------------|---|
B|----------------------------------------------------------------------|---|
G|----------------------------------------------------------------------|---|
D|----------------------------------------------------------------------|---|
A|3-3-1-3-1-3-1----6-6-1-3-6-3-6-3--------5-----5-----------------------|-8-|
E|------------------------------------6-6---6-6---6----4-4-6-4-6-4-4-6-4|-6-|
  This part repeats 2 times                                             (x8)

  chorus
e|------------------------|--------------------------------------------------|
B|------------------------|--------------------------------------------------|
G|------------------------|--------------------------------------------------|
D|-----5-----------8------|--------------------------------------------------|
A|-----3(x8)-------6(x8)--|----8---------------------------------------------|
E|------------------------|----6(x8)-----------------------------------------|
  This part repeats 8x    |