Brand New - The No Seatbelt Song Chords & Tabs

 

The No Seatbelt Song Chords & Tabs

Brand New Chords & Tabs

Version: 1 Type: Tab 0 ratings
1 star 2 stars 3 stars 4 stars 5 stars
comments

The No Seatbelt Song Tab

   
hey its punkdude969 here to give
you another great song tab!
here you go........

into/verse
e[----------------------------------------------------------]
B[----------------------------------------------------------]
G[----------------------------------------------------------]
D[-5555555588888888-----------------------------------------]
A[-333333336666666633333333666655558888888866666666888888885]
E[-----------------11111111444433336666666644444444666666664]
PM..........................................................

[ Tab from: http://www.guitartabs.cc/tabs/b/brand_new/the_no_seatbelt_song_tab.html ]
chorus
e[---------------------------------]
B[---------------------------------]
G[-55555555888888885555555588888888]
D[-xxxxxxxxxxxxxxxxxxxxxxxxxxxxxxxx]
A[-33333333666666663333333366665555]
E[---------------------------------]

pre-verse
e[---------]
B[---------]
G[---------]
D[-88888888]
A[-88888888]
E[-66666666]

interlude
e[--------------------------------------------]
B[--------------------------------------------]
G[--------------------------------------------]
D[----------11-1-1------0--0------------------]
A[-3313131----3-3-3---11-11--1-----1----1-----]
E[-------------------------------44--4-4--4---]

outro
e[---------]
B[---------]
G[---------]
D[-8----10-]
A[-8----10-]
E[-6----8--]



ORDER...

intro.......1x
verse.......2x
chorus......2x
pre-verse...1x
verse.......2x
chorus......4x
pre-verse...8x
interlude...2x
per-verse...1x
chorus......6x
outro.......1x

hey its easy and fun to play.
but i must go save the world now  so bye.,.........punkdude969!
Comments