Brand New - The Boy Who Blocked His Own Shot Chords & Tabs

 

The Boy Who Blocked His Own Shot Chords & Tabs

Brand New Chords & Tabs

Version: 3 Type: Tab 0 ratings
1 star 2 stars 3 stars 4 stars 5 stars
comments

The Boy Who Blocked His Own Shot Tab

Standard Tuning

Here is the order you play everything...  the stuff the lines up in horizontal lines is
played at the same time. its a little confusing but i couldnt think of an easier way..

Verse 1	x5
Chorus 	x1
Verse 1	x5	Verse 2	x1
                          Lead 1	x2
		Verse 3	x2	Lead 2 	x2
Chorus	x1
Verse 1	x3	Verse 2	x3
Chorus 	x1
Ending	x1

Verse 1
|----3---3---3---3-----------------5----------------------------------------| 
|----0---0---1---0-------------3---3-----0---0---3--------------------------| 
|----0---0---0---0-----0---0---0---0-----0---0---0--------------------------| 
|----0---0---0---0-----4---4---4---4-----2---2---2--------------------------| 
|----2---2---2---2-----5---5---5---5-----3---3---3--------------------------|
|----3---3---3---3----------------------------------------------------------| 

Chorus
|---------5~------------------------------5~--------------------------------| 
|---------3~----0---0---3---0-------------3~----3~--------------------------| 
|---0~----0~----0---0---0---0-------0~----0~----0~--------------------------| 
|---0~----4~----2---2---2---2-------0~----4~----2~--------------------------| 
|---2~----5~----3---3---3---3-------2~----5~----3~--------------------------| 
|---3~------------------------------3~--------------------------------------| 

Verse 2
|---------------------------------------------------------------------------| 
|---------------------------------------------------------------------------| 
|----12--12--16--14----14--14--12--11----9---12---7-------------------------| 
|---------------------------------------------------------------------------| 
|----10--10--14--12----12--12--10--9-----7---10---5-------------------------| 
|---------------------------------------------------------------------------| 
[ Tab from: http://www.guitartabs.cc/tabs/b/brand_new/the_boy_who_blocked_his_own_shot_tab_ver_3.html ]
Verse 3
|---------------------------------------------------------------------------| 
|---------------------------------------------------------------------------| 
|----12--12--12--12----14--14--14--14----9--9--7--7-------------------------| 
|---------------------------------------------------------------------------| 
|----10--10--10--10----12--12--12--12----7--7--5--5-------------------------| 
|---------------------------------------------------------------------------| 

Lead 1
|--------------------------10~------------------------------------10~-------| 
|----------------5---8----------------------------5-------5---8-------------| 
|-----------------------------------------------------7---------------------| 
|---------------------------------------------------------------------------| 
|---------------------------------------------------------------------------| 
|---------------------------------------------------------------------------| 

Lead 2
|-------------------------------------------------8---7-----10--8--7--------| 
|---------------------------------------------------------------------5--7--| 
|---------------------------------------------------------------------------| 
|---------------------------------------------------------------------------| 
|---------------------------------------------------------------------------| 
|---------------------------------------------------------------------------| 

Ending
|----3~---------------------------------------------------------------------| 
|----3~---------------------------------------------------------------------| 
|----0~---------------------------------------------------------------------| 
|----0~---------------------------------------------------------------------| 
|----2~---------------------------------------------------------------------| 
|----3~---------------------------------------------------------------------|
Comments