Brand New - The Boy Who Blocked His Own Shot Chords & Tabs

 

The Boy Who Blocked His Own Shot Chords & Tabs

Brand New Chords & Tabs

Version: 3 Type: Chords 0 ratings
1 star 2 stars 3 stars 4 stars 5 stars
comments

The Boy Who Blocked His Own Shot Chords

   
When tuned standard it can be played with these three bar chords:

         Gb                     Db                        B
e|--------2----------------------9------------------------7----------------|
B|--------2----------------------9------------------------7----------------|
G|--------3----------------------10-----------------------8----------------|
D|--------4----------------------11-----------------------9----------------|
A|--------4----------------------11-----------------------9----------------|
E|--------2----------------------9------------------------7----------------|

When tuned flat it can be played with these three chords:
[ Tab from: http://www.guitartabs.cc/tabs/b/brand_new/the_boy_who_blocked_his_own_shot_crd_ver_3.html ]
         G                        D                        C
e|-------3------------------------2----------------------------------------|
B|-------3------------------------3------------------------1---------------|
G|--------------------------------2----------------------------------------|
D|---------------------------------------------------------2---------------|
A|-------2-------------------------------------------------3---------------|
E|-------3-----------------------------------------------------------------|

peronsally i think it sounds better tuned flat. 
the chords are in the correct order for both and the strum pattern is pretty easy.
Comments