Brand New - The Boy Who Blocked His Own Shot Chords & Tabs

 

The Boy Who Blocked His Own Shot Chords & Tabs

Brand New Chords & Tabs

Version: 1 Type: Chords 2 ratings
1 star 2 stars 3 stars 4 stars 5 stars
comments

The Boy Who Blocked His Own Shot Chords

   
Okay, this song is really super easy..but you have to listen to the song to
hear how many times the chords is strumed, etc.


Intro
    
    G              Dsus            Cadd9

Eb|-3---------------3---------------3------3~|
Bb|-3---------------3---------------3------3~|
Gb|-0---------------2---------------0------0~|
Db|-0---------------0---------------2------2~|  
Ab|-2---------------x---------------3------3~| 
Eb|-3---------------x---------------x------x~|



If it makes you less sad, i will die by your hand...

Eb|-3---------------3---------------3------3~|
Bb|-3---------------3---------------3------3~|
Gb|-0---------------2---------------0------0~|
Db|-0---------------0---------------2------2~|  
Ab|-2---------------x---------------3------3~| 
Eb|-3---------------x---------------x------x~|


And if it makes you less sad, we'll start talking again...

Eb|-3---------------3---------------3------3~|
Bb|-3---------------3---------------3------3~|
Gb|-0---------------2---------------0------0~|
Db|-0---------------0---------------2------2~|  
Ab|-2---------------x---------------3------3~| 
Eb|-3---------------x---------------x------x~|



I'll grow old..

Eb|-3---------------3---------------3------3~|
Bb|-3---------------3---------------3------3~|
Gb|-0---------------2---------------0------0~|
Db|-0---------------0---------------2------2~|  
Ab|-2---------------x---------------3------3~| 
Eb|-3---------------x---------------x------x~|



A crown of gold...

Eb|-3---------------3---------------3------3~|
Bb|-3---------------3---------------3------3~|
Gb|-0---------------2---------------0------0~|
Db|-0---------------0---------------2------2~|  
Ab|-2---------------x---------------3------3~| 
Eb|-3---------------x---------------x------x~|


Call me a safe bet..      i'm betting i'm not..

Eb|-3-----pause------3----pause------3------3~|
Bb|-3-----pause------3----pause------3------3~|
Gb|-0-----pause------2----pause------0------0~|
Db|-0-----pause------0----pause------2------2~|  
Ab|-2-----pause------x----pause------3------3~| 
Eb|-3-----pause------x----pause------x------x~|

I'm glad that you can forgive...

Eb|-3-----pause------3----pause------3------3~|
Bb|-3-----pause------3----pause------3------3~|
Gb|-0-----pause------2----pause------0------0~|
Db|-0-----pause------0----pause------2------2~|  
Ab|-2-----pause------x----pause------3------3~| 
Eb|-3-----pause------x----pause------x------x~|



Eb|-3---------------3---------------3------3~|
Bb|-3---------------3---------------3------3~|
Gb|-0---------------2---------------0------0~|
Db|-0---------------0---------------2------2~|  
Ab|-2---------------x---------------3------3~| 
Eb|-3---------------x---------------x------x~|



If it makes you less sad, i'll move out of this state

Eb|-3---------------3---------------3------3~|
Bb|-3---------------3---------------3------3~|
Gb|-0---------------2---------------0------0~|
Db|-0---------------0---------------2------2~|  
Ab|-2---------------x---------------3------3~| 
Eb|-3---------------x---------------x------x~|
[ Tab from: http://www.guitartabs.cc/tabs/b/brand_new/the_boy_who_blocked_his_own_shot_crd.html ]
And if it makes you less sad, i'll take your pictures all down
Eb|-3---------------3---------------3------3~|
Bb|-3---------------3---------------3------3~|
Gb|-0---------------2---------------0------0~|
Db|-0---------------0---------------2------2~|  
Ab|-2---------------x---------------3------3~| 
Eb|-3---------------x---------------x------x~|


As cold as a tune...

Eb|-3---------------3---------------3------3~|
Bb|-3---------------3---------------3------3~|
Gb|-0---------------2---------------0------0~|
Db|-0---------------0---------------2------2~|  
Ab|-2---------------x---------------3------3~| 
Eb|-3---------------x---------------x------x~|


So call it quits..

Eb|-3---------------3---------------3------3~|
Bb|-3---------------3---------------3------3~|
Gb|-0---------------2---------------0------0~|
Db|-0---------------0---------------2------2~|  
Ab|-2---------------x---------------3------3~| 
Eb|-3---------------x---------------x------x~|


Call me a safe bet..      i'm betting i'm not..

Eb|-3-----pause------3----pause------3------3~|
Bb|-3-----pause------3----pause------3------3~|
Gb|-0-----pause------2----pause------0------0~|
Db|-0-----pause------0----pause------2------2~|  
Ab|-2-----pause------x----pause------3------3~| 
Eb|-3-----pause------x----pause------x------x~|

I'm glad that you can forgive...

Eb|-3-----pause------3----pause------3------3~|
Bb|-3-----pause------3----pause------3------3~|
Gb|-0-----pause------2----pause------0------0~|
Db|-0-----pause------0----pause------2------2~|  
Ab|-2-----pause------x----pause------3------3~| 
Eb|-3-----pause------x----pause------x------x~|

You can forget.. youc can forget...

Eb|-3---------------3---------------3------3~|
Bb|-3---------------3---------------3------3~|
Gb|-0---------------2---------------0------0~|
Db|-0---------------0---------------2------2~|  
Ab|-2---------------x---------------3------3~| 

You are ...

Eb|-3---------------3---------------3------3~|
Bb|-3---------------3---------------3------3~|
Gb|-0---------------2---------------0------0~|
Db|-0---------------0---------------2------2~|  
Ab|-2---------------x---------------3------3~| 
Eb|-3---------------x---------------x------x~|
Eb|-3---------------x---------------x------x~|



you are so fragile and thin..

Eb|-3---------------3---------------3------3~|
Bb|-3---------------3---------------3------3~|
Gb|-0---------------2---------------0------0~|
Db|-0---------------0---------------2------2~|  
Ab|-2---------------x---------------3------3~| 
Eb|-3---------------x---------------x------x~|

(lighter struming)
Call me a safe bet..      i'm betting i'm not..

Eb|-3-----pause------3----pause------3------3~|
Bb|-3-----pause------3----pause------3------3~|
Gb|-0-----pause------2----pause------0------0~|
Db|-0-----pause------0----pause------2------2~|  
Ab|-2-----pause------x----pause------3------3~| 
Eb|-3-----pause------x----pause------x------x~|

I'm glad that you can forgive...

Eb|-3-----pause------3----pause------3------3~|
Bb|-3-----pause------3----pause------3------3~|
Gb|-0-----pause------2----pause------0------0~|
Db|-0-----pause------0----pause------2------2~|  
Ab|-2-----pause------x----pause------3------3~| 
Eb|-3-----pause------x----pause------x------x~|
Comments