Brand New - Tautou Chords & Tabs

 

Tautou Chords & Tabs

Brand New Chords & Tabs

Version: 1 Type: Tab 2 ratings
1 star 2 stars 3 stars 4 stars 5 stars
comments

Tautou Tab

The intro to this album is frickin awesome.  Just try it for yourself.

eb  ------------------------------------------------------------------
Bb  ------------------------------------------------------------------
Gb  -8h9-8-4~---------------------------------------------------------
Db  ------------6h7-7-7--7-6-4-4-2~-----------------------------------
Ab  ------------------------------------------------------------------
Eb  ------------------------------------------------------------------

eb  ------------------------------------------------------------------
Bb  ------------------------------------------------------------------
Gb  -9~--8~--6~---4~--------9~--8~--6~--4~----------------------------
Db  ------------------------------------------------------------------
Ab  ------------------------------------------------------------------
Eb  ------------------------------------------------------------------
[ Tab from: http://www.guitartabs.cc/tabs/b/brand_new/tautou_tab.html ]
eb  ------------------------------------------------------------------
Bb  ------------------------------------------------------------------
Gb  ------------------------------------------------------------------
Db  -6-6h7-7-7~-------7-6-4-4-2~--------------------------------------
Ab  ------------------------------------------------------------------
Eb  ------------------------------------------------------------------

eb  ------------------------------------------------------------------
Bb  ------------------------------------------------------------------
Gb  -----------9------------------------------------------------------
Db  ------11------11---11---------------------------------------------
Ab  ---11---11-------11-----------------------------------------------
Eb  -9----------------------------------------------------------------

eb  ------------------------------------------------------------------
Bb  ------------------------------------------------------------------
Gb  -----------8------------------------------------------------------
Db  ------10-----10-----10--------------------------------------------
Ab  ---10---10-------10-----------------------------------------------
Eb  -8----------------------------------------------------------------
Comments