Brand New - Soco Amaretto Lime Chords & Tabs

 

Soco Amaretto Lime Chords & Tabs

Brand New Chords & Tabs

Version: 5 Type: Tab 0 ratings
1 star 2 stars 3 stars 4 stars 5 stars
comments

Soco Amaretto Lime Tab

   
Okay. First of all, when tabbing out a song, you have to listen to tiny details like 
a note is played open or fretted. This song is not in standard tuning or drop d like the 
versions said, but tuned a half step down. (like almost ALL Brand New songs!)
Tabbed By: Grant Blanco
Tuning is as follows: D# g# c# f# a# D#
~ Let Note Ring

Intro:
d#|-----------------------------------------------------------------|
a#|-----------------------------------------------------------------|
f#|-----7-------7-------7-------7-----------------------------------|
c#|-7-7-7-7-7-7-7-7-7-7-7-7-7-7-7-------5---5-4-4-7-----7-------7---|
g#|-5-5-5-5-5-5-5-5-5-5-5-5-5-5-5-0-5---5---5-5-5-5---5-5-5-5-5-5-0-|
D#|-------------------------------0-3---3---3-3-3-3---3-3-3-3-3-3-0-|

d#|-----------------------------------------------------------------|
a#|-----------------------------------------------------------------|
f#|-----7-------7-------7-------7-----------------------------------|
c#|-7-7-7-7-7-7-7-7-7-7-7-7-7-7-7-------5-5-5-4-4-7~----------------|
g#|-5-5-5-5-5-5-5-5-5-5-5-5-5-5-5-0-5-5-5-5-5-5-5-5~----------------|
D#|-------------------------------0-3-3-3-3-3-3-3-3~----------------|

Verse:
d#|-----------------------------------------------------------------|
a#|-----------------------------------------------------------------|
f#|-----7-------7-------7-------7-----------------------------------|
c#|-7-7-7-7-7-7-7-7-7-7-7-7-7-7-7-------5-------4-7-----7-------7---|
g#|-5-5-5-5-5-5-5-5-5-5-5-5-5-5-5-0-5-5-5-5-5-5-5-5---5-5-5-5-5-5-0-|
D#|-------------------------------0-3-3-3-3-3-3-3-3---3-3-3-3-3-3-0-|
Passed out, on the overpass.          Sunday best and broken glass.

d#|-----------------------------------------------------------------|
a#|-----------------------------------------------------------------|
f#|-----7-------7-------7-------7-----------------------------------|
c#|-7-7-7-7-7-7-7-7-7-7-7-7-7-7-7-------5-------4-7-----7-------7---|
g#|-5-5-5-5-5-5-5-5-5-5-5-5-5-5-5-0-5-5-5-5-5-5-5-5---5-5-5-5-5-5-0-|
D#|-------------------------------0-3-3-3-3-3-3-3-3---3-3-3-3-3-3-0-|
Broken down from the bikes n' bars. Suspended like spirits over speeding cars

d#|-----------------------------------------------------------------|
a#|-----------------------------------------------------------------|
f#|-------------------------------------7-------7-------------------|
c#|-----7-------7-------7-------7---7-7-7-7-7-7-7-5-----5-------5---|
g#|-7-7-7-7-7-7-7-7-7-7-7-7-7-7-7-0-5-5-5-5-5-5-5-5---5-5-5-5-5-5-0-|
D#|-5-5-5-5-5-5-5-5-5-5-5-5-5-5-5-0---------------3---3-3-3-3-3-3-0-|
        You and me were kings. Over the parkway tonight.        And tonight

d#|---------------------------------|
a#|---------------------------------|
f#|---------------------------------|
c#|-----7-------7-------5-------5---|
g#|-7-7-7-7-7-7-7-0-5-5-5-5-5-5-5-0-|
D#|-5-5-5-5-5-5-5-0-3-3-3-3-3-3-3-0-|
      will go on forever while we

d#|-----------------------------------------------------------------|
a#|-----------------------------------------------------------------|
f#|-----7-------7-------7-------7-----------------------------------|
c#|-7-7-7-7-7-7-7-7-7-7-7-7-7-7-7-------5-------4-7-----7-------7---|
g#|-5-5-5-5-5-5-5-5-5-5-5-5-5-5-5-0-5-5-5-5-5-5-5-5-5-5-5-5-5-5-5-0-|
D#|-------------------------------0-3-3-3-3-3-3-3-3-3-3-3-3-3-3-3-0-|
Walk around this town like we own the streets and stay awake through summer like we own 
heat. Singing

d#|-----------------------------------------------------------------|
a#|-----------------------------------------------------------------|
f#|-----7-------7-------7-------7-----------------------------------|
c#|-7-7-7-7-7-7-7-7-7-7-7-7-7-7-7-------5-------4-7-----7-------7---|
g#|-5-5-5-5-5-5-5-5-5-5-5-5-5-5-5-0-5-5-5-5-5-5-5-5-5-5-5-5-5-5-5-0-|
D#|-------------------------------0-3-3-3-3-3-3-3-3-3-3-3-3-3-3-3-0-|
every body wake up,           it's time to get down.          And when I
                (Wake up everybody. Everybody wake up it's time to get down)

d#|-----------------------------------------------------------------|
a#|-----------------------------------------------------------------|
f#|-------------------------------------7-------7-------------------|
c#|-----7-------7-------7-------7---7-7-7-7-7-7-7-5-----5-------5---|
g#|-7-7-7-7-7-7-7-7-7-7-7-7-7-7-7-0-5-5-5-5-5-5-5-5---5-5-5-5-5-5-0-|
D#|-5-5-5-5-5-5-5-5-5-5-5-5-5-5-5-0---------------3---3-3-3-3-3-3-0-|
 pass the bottle back to Pete, on the overpass tonight I  bet we laugh.

d#|---------------------------------|
a#|---------------------------------|
f#|-----------------0---0---0---0---|
c#|-----7-------7-----4---4---4---4-|
g#|-7-7-7-7-7-7-7-7-----------------|
D#|-5-5-5-5-5-5-5-5-----------------|

Chorus:
d#|-----------------------------------------------------------------|
a#|-----------------------------------------------------------------|
f#|-------------------------------------7-------7-------7-------7---|
c#|-----7-------7-------7-------7---7-7-7-7-7-7-7-7-7-7-7-7-7-7-7---|
g#|-5-5-5-5-5-5-5-5-5-5-5-5-5-5-5-0-5-5-5-5-5-5-5-5-5-5-5-5-5-5-5-0-|
D#|-3-3-3-3-3-3-3-3-3-3-3-3-3-3-3-0-------------------------------0-|
I'm gonna stay 18 forever.    So we can stay like this forever. And we'll

d#|-----------------------------------------------------------------|
a#|-----------------------------------------------------------------|
f#|-----9-------9-------9-------9-----------------------------------|
c#|-9-9-9-9-9-9-9-9-9-9-9-9-9-9-9-------7-------7-------7-------7---|
g#|-7-7-7-7-7-7-7-7-7-7-7-7-7-7-7-0-7-7-7-7-7-7-7-7-7-7-7-7-7-7-7-0-|
D#|-0-0-0-0-0-0-0-0-0-0-0-0-0-0-0-0-5-5-5-5-5-5-5-5-5-5-5-5-5-5-5-0-|
never miss a party 'cause we        keep them going constantly. And we'll

d#|-----------------------------------------------------------------|
a#|-----------------------------------------------------------------|
f#|-------------------------------------7-------7-------7-------7---|
c#|-----7-------7-------7-------7---7-7-7-7-7-7-7-7-7-7-7-7-7-7-7---|
g#|-5-5-5-5-5-5-5-5-5-5-5-5-5-5-5-0-5-5-5-5-5-5-5-5-5-5-5-5-5-5-5-0-|
D#|-3-3-3-3-3-3-3-3-3-3-3-3-3-3-3-0-------------------------------0-|
never have to listen              to anyone 'bout anything.     'Cause it's

d#|-----------------------------------------------------------------|
a#|-----------------------------------------------------------------|
f#|-----9-------9-------9-------9-----------------------------------|
c#|-9-9-9-9-9-9-9-9-9-9-9-9-9-9-9---7~-------------7~---------------|
g#|-7-7-7-7-7-7-7-7-7-7-7-7-7-7-7-0-7~--------------------7~--------|
D#|-0-0-0-0-0-0-0-0-0-0-0-0-0-0-0-0-5~---------------------------5~-|
all been done. And it's all been said we're the coolest kids and we take what we can get

Verse:
d#|-----------------------------------------------------------------|
a#|-----------------------------------------------------------------|
f#|-----7-------7-------7-------7-----------------------------------|
c#|-7-7-7-7-7-7-7-7-7-7-7-7-7-7-7-------5-------4-7-----7-------7---|
g#|-5-5-5-5-5-5-5-5-5-5-5-5-5-5-5-0-5-5-5-5-5-5-5-5---5-5-5-5-5-5-0-|
D#|-------------------------------0-3-3-3-3-3-3-3-3---3-3-3-3-3-3-0-|
the hell out of this town.        Find some conversation.
[ Tab from: http://www.guitartabs.cc/tabs/b/brand_new/soco_amaretto_lime_tab_ver_5.html ]
d#|-----------------------------------------------------------------|
a#|-----------------------------------------------------------------|
f#|-----7-------7-------7-------7-----------------------------------|
c#|-7-7-7-7-7-7-7-7-7-7-7-7-7-7-7-------5-------4-7-----7-------7---|
g#|-5-5-5-5-5-5-5-5-5-5-5-5-5-5-5-0-5-5-5-5-5-5-5-5---5-5-5-5-5-5-0-|
D#|-------------------------------0-3-3-3-3-3-3-3-3---3-3-3-3-3-3-0-|
The low fuel light's been on for days. It doesn't mean anything. I've got

d#|-----------------------------------------------------------------|
a#|-----------------------------------------------------------------|
f#|-------------------------------------7-------7-------------------|
c#|-----7-------7-------7-------7---7-7-7-7-7-7-7-5-----5-------5---|
g#|-7-7-7-7-7-7-7-7-7-7-7-7-7-7-7-0-5-5-5-5-5-5-5-5---5-5-5-5-5-5-0-|
D#|-5-5-5-5-5-5-5-5-5-5-5-5-5-5-5-0---------------3---3-3-3-3-3-3-0-|
another 500 'nother 500 miles before we shut this engine down, we'll shut it

d#|---------------------------------|
a#|-----------------0---0---0---0---|
f#|-------------------4---4---4---4-|
c#|-----7-------7-------------------|
g#|-7-7-7-7-7-7-7-7-----------------|
D#|-5-5-5-5-5-5-5-5-----------------|
down.

Chorus:
d#|-----------------------------------------------------------------|
a#|-----------------------------------------------------------------|
f#|-------------------------------------7-------7-------7-------7---|
c#|-----7-------7-------7-------7---7-7-7-7-7-7-7-7-7-7-7-7-7-7-7---|
g#|-5-5-5-5-5-5-5-5-5-5-5-5-5-5-5-0-5-5-5-5-5-5-5-5-5-5-5-5-5-5-5-0-|
D#|-3-3-3-3-3-3-3-3-3-3-3-3-3-3-3-0-------------------------------0-|
I'm gonna stay 18 forever.    So we can stay like this forever. And we'll

d#|-----------------------------------------------------------------|
a#|-----------------------------------------------------------------|
f#|-----9-------9-------9-------9-----------------------------------|
c#|-9-9-9-9-9-9-9-9-9-9-9-9-9-9-9-------7-------7-------7-------7---|
g#|-7-7-7-7-7-7-7-7-7-7-7-7-7-7-7-0-7-7-7-7-7-7-7-7-7-7-7-7-7-7-7-0-|
D#|-0-0-0-0-0-0-0-0-0-0-0-0-0-0-0-0-5-5-5-5-5-5-5-5-5-5-5-5-5-5-5-0-|
never miss a party 'cause we        keep them going constantly. And we'll

d#|-----------------------------------------------------------------|
a#|-----------------------------------------------------------------|
f#|-------------------------------------7-------7-------7-------7---|
c#|-----7-------7-------7-------7---7-7-7-7-7-7-7-7-7-7-7-7-7-7-7---|
g#|-5-5-5-5-5-5-5-5-5-5-5-5-5-5-5-0-5-5-5-5-5-5-5-5-5-5-5-5-5-5-5-0-|
D#|-3-3-3-3-3-3-3-3-3-3-3-3-3-3-3-0-------------------------------0-|
never have to listen              to anyone 'bout anything.     'Cause it's

d#|-----------------------------------------------------------------|
a#|-----------------------------------------------------------------|
f#|-----9-------9-------9-------9-----------------------------------|
c#|-9-9-9-9-9-9-9-9-9-9-9-9-9-9-9-------7-------7-------7-------7---|
g#|-7-7-7-7-7-7-7-7-7-7-7-7-7-7-7-0-7-7-7-7-7-7-7-7-7-7-7-7-7-7-7-0-|
D#|-0-0-0-0-0-0-0-0-0-0-0-0-0-0-0-0-5-5-5-5-5-5-5-5-5-5-5-5-5-5-5-0-|
all been done and it's all been said. We're the coolest kids and we take what we can get.

d#|-----------------------------------------------------------------|
a#|-----------------------------------------------------------------|
f#|-------------------------------------7-------7-------7-------7---|
c#|-----7-------7-------7-------7---7-7-7-7-7-7-7-7-7-7-7-7-7-7-7---|
g#|-5-5-5-5-5-5-5-5-5-5-5-5-5-5-5-0-5-5-5-5-5-5-5-5-5-5-5-5-5-5-5-0-|
D#|-3-3-3-3-3-3-3-3-3-3-3-3-3-3-3-0-------------------------------0-|
18 forever.                  So we can stay like this forever.  And we'll
(You're just jealous 'cause I'm young and in live. Your stomach's filled up but you're 
for conversation.)

d#|-----------------------------------------------------------------|
a#|-----------------------------------------------------------------|
f#|-----9-------9-------9-------9-----------------------------------|
c#|-9-9-9-9-9-9-9-9-9-9-9-9-9-9-9-------7-------7-------7-------7---|
g#|-7-7-7-7-7-7-7-7-7-7-7-7-7-7-7-0-7-7-7-7-7-7-7-7-7-7-7-7-7-7-7-0-|
D#|-0-0-0-0-0-0-0-0-0-0-0-0-0-0-0-0-5-5-5-5-5-5-5-5-5-5-5-5-5-5-5-0-|
never miss a party 'cause we        keep the going constantly. And we'll
(Spending all your nights growing old in your bed, and you're tearing up your photos 
you wanna forget. It's over.)

d#|-----------------------------------------------------------------|
a#|-----------------------------------------------------------------|
f#|-------------------------------------7-------7-------7-------7---|
c#|-----7-------7-------7-------7---7-7-7-7-7-7-7-7-7-7-7-7-7-7-7---|
g#|-5-5-5-5-5-5-5-5-5-5-5-5-5-5-5-0-5-5-5-5-5-5-5-5-5-5-5-5-5-5-5-0-|
D#|-3-3-3-3-3-3-3-3-3-3-3-3-3-3-3-0-------------------------------0-|
never have to listen              to anyone 'bout anything.     'Cause it's
(You're just jealous 'cause I'm young and in love. Your stomach's filled up but you're 
for conversation.)

d#|-----------------------------------------------------------------|
a#|-----------------------------------------------------------------|
f#|-----9-------9-------9-------9-----------------------------------|
c#|-9-9-9-9-9-9-9-9-9-9-9-9-9-9-9---7~-------------7~---------------|
g#|-7-7-7-7-7-7-7-7-7-7-7-7-7-7-7-0-7~--------------------7~--------|
D#|-0-0-0-0-0-0-0-0-0-0-0-0-0-0-0-0-5~---------------------------5~-|
all been done and it's all been said. We're the coolest kids and we take what we can get.
(Spending all your nights growing old in your bed, and you're tearing up your photos 
you wanna forget. It's over.)

Outro:
d#|-----------------------------------------------------------------|
a#|-----------------------------------------------------------------|
f#|-------------------------------------7-------7-------7-------7---|
c#|-----7-------7-------7-------7---7-7-7---7-7-7-7-7-7-7---7-7-7---|
g#|-5-5-5---5-5-5-5-5-5-5---5-5-5-0-5-5-5---5-5-5-5-5-5-5---5-5-5-0-|
D#|-3-3-3---3-3-3-3-3-3-3---3-3-3-0---------------------------------|
YOU'RE JUST JEALOUS 'CAUSE WE'RE YOUNG AND IN LOVE! YOU'RE JUST JEALOUS 'CAUSE WERE 
AND IN LOVE!

d#|-----------------------------------------------------------------|
a#|-----------------------------------------------------------------|
f#|-----9-------9-------9-------9-----------------------------------|
c#|-9-9-9-9-9-9-9-9-9-9-9-9-9-9-9---7---7-------7-------7-------7---|
g#|-7-7-7-7-7-7-7-7-7-7-7-7-7-7-7-0-7---7-7-7-7-7-7-7-7-7-7-7-7-5-0-|
D#|-0-0-0-0-0-0-0-0-0-0-0-0-0-0-0-0-5---5-5-5-5-5-5-5-5-5-5-5-5-5-0-|
YOU'RE JUST JEALOUS 'CAUSE WE'RE YOUNG AND IN LOVE! YOU'RE JUST JEALOUS CAUSE WE'RE 
AND IN LOVE!

d#|-----------------------------------------------------------------|
a#|-----------------------------------------------------------------|
f#|-------------------------------------7-------7-------------------|
c#|-----7-------7-------7-------7---7-7-7---7-7-7-------------------|
g#|-5-5-5---5-5-5-5-5-5-5---5-5-5-0-5-5-5---5-5-5-------------------|
D#|-3-3-3---3-3-3-3-3-3-3---3-3-3-0---------------------------------|
YOU'RE JUST JEALOUS 'CAUSE WE'RE YOUNG AND IN LOVE! YOU'RE JUST JEALOUS

Well, that's how you play this song the RIGHT way. You can improvise on the outro but 
else play as it is written. Have a great time playing this song and email me if you have 
questions/comments.
email:strum_life_away@yahoo.com
Comments