Brand New - Soco Amaretto Lime Chords & Tabs

 

Soco Amaretto Lime Chords & Tabs

Brand New Chords & Tabs

Version: 3 Type: Tab 0 ratings
1 star 2 stars 3 stars 4 stars 5 stars
comments

Soco Amaretto Lime Tab

Okay, first off if you can't tab PLEASE Jesus don't do it.  There's nothing worse
than scouring the internet looking for the correct tab to a song and only finding
consistently wrong tabs.  I'd have to say that all the credit goes to Orion Moses,
we both do this song together a bunch, and I'm absolutely positive that this song
is 100% correct, note for note.  I really don't mind if you distribute this to
your friends, or to other guitar tablature sites because the end goal is for everyone
who wants to be able to play to be able to play it, just don't be a dick and take
credit for the tabs eh?

This song is in Drop D.  This simply means that the low E string is tuned down to
a solid D.  It's pretty much impossible to play it in E, so either buy a tuner, or
learn to tune by ear (it's really easy to tune by ear)

~ = Vibrato

"1, 2, 3, 4"
0:09
e-------------------------------------------------------
B-------------------------------------------------------
G------6--------6--------6--------6---------------------    X2
D------6--------6--------6--------6-----444444466666666-
A--4-4-4--4-4-4-4--4-4-4-4--4-4-4-4-----444444444444444-
D------------------------------------0--444444444444444-0

The second time around the intro ends with
0:27
e----------
B----------
G----------
D--44444446~
A--44444444~
D--44444444~

"Passed Out..."
0:29
e-------------------------------------------------------
B-------------------------------------------------------
G------6--------6--------6--------6---------------------    X2
D------6--------6--------6--------6-----444444466666666-
A--4-4-4--4-4-4-4--4-4-4-4--4-4-4-4-----444444444444444-
D------------------------------------0--444444444444444-0

"You and me were kings..."
0:49
e----------------------------------------------------------
B----------------------------------------------------------
G----------------------------------------------------------
D--6666666666666666--44444444--44444444--66666666--44444444
A--6666666666666666--44444444--44444444--66666666--44444444
D--6666666666666666--66666666--44444444--66666666--44444444

"Walk around this town..."
1:05
e-------------------------------------------------------
B-------------------------------------------------------
G------6--------6--------6--------6---------------------    X2
D------6--------6--------6--------6-----444444466666666-
A--4-4-4--4-4-4-4--4-4-4-4--4-4-4-4-----444444444444444-
D------------------------------------0--444444444444444-0

"And when I pass..."
1:24
e------------------------------------------------
B------------------------------------------------
G------------------------------------------------
D--6666666666666666--44444444--44444444--66666666
A--6666666666666666--44444444--44444444--66666666
D--6666666666666666--66666666--44444444--66666666

1:37
e-----------------
B-----------------
G-----------------
D--4-3-4-3-4-3-4-3
A-----------------
D-----------------
[ Tab from: http://www.guitartabs.cc/tabs/b/brand_new/soco_amaretto_lime_tab_ver_3.html ]
"I'm gonna stay..."
1:38
e------------------------------------------------------------------------
B------------------------------------------------------------------------
G------------------------------------------------------------------------
D--4444444444444444--3333333333333333--6666666666666666--6666666666666666 X2
A--4444444444444444--3333333333333333--4444444444444444--6666666666666666
D--4444444444444444--3333333333333333--4444444444444444--6666666666666666

"can get..."
2:20
e-------------------------------------------------------
B-------------------------------------------------------
G------6--------6--------6--------6---------------------    X2
D------6--------6--------6--------6-----444444466666666-
A--4-4-4--4-4-4-4--4-4-4-4--4-4-4-4-----444444444444444-
D------------------------------------0--444444444444444-0

"I've got another..."
2:39
e------------------------------------------------
B------------------------------------------------
G------------------------------------------------
D--6666666666666666--44444444--44444444--66666666
A--6666666666666666--44444444--44444444--66666666
D--6666666666666666--66666666--44444444--66666666

2:51
e-----------------
B-----------------
G-----------------
D--4-3-4-3-4-3-4-3
A-----------------
D-----------------

"I'm gonna stay..."
2:54
e------------------------------------------------------------------------
B------------------------------------------------------------------------
G------------------------------------------------------------------------
D--4444444444444444--3333333333333333--6666666666666666--6666666666666666 X2
A--4444444444444444--3333333333333333--4444444444444444--6666666666666666
D--4444444444444444--3333333333333333--4444444444444444--6666666666666666

"What we can get..."
3:34
e------------------------------------------------------------------------
B------------------------------------------------------------------------
G------------------------------------------------------------------------
D--4444444444444444--3333333333333333--6666666666666666--6666666666666666 X2
A--4444444444444444--3333333333333333--4444444444444444--6666666666666666
D--4444444444444444--3333333333333333--4444444444444444--6666666666666666

"Just jealous..."
4:16
e------------------------------------------------------------------------
B------------------------------------------------------------------------
G------------------------------------------------------------------------
D--4444444444444444--3333333333333333--6666666666666666--6666666666666666 X2
A--4444444444444444--3333333333333333--4444444444444444--6666666666666666
D--4444444444444444--3333333333333333--4444444444444444--6666666666666666

Suprisingly easy song for it to be as remarkably good as it is.  Once again,
feel free to distribute it as much as you want, and if you're lame enough you can
take credit for it ;), because we both know online threats aren't really going to
dissuade you, right?  Enjoy the tabs guys, play the song for your chicks ^_^.
Comments