Brand New - Sic Transit Gloria Glory Fades Chords & Tabs

 

Sic Transit Gloria Glory Fades Chords & Tabs

Brand New Chords & Tabs

Version: 5 Type: Bass Tab 0 ratings
1 star 2 stars 3 stars 4 stars 5 stars
comments

Sic Transit Gloria Glory Fades Bass Tab

   
----------------------------------------------------------------------------
		      Sic Transit Gloria - Brand New  
----------------------------------------------------------------------------
Tabbed By : Memo
e-mail: deride_korn_mudvayne666@hotmail.com

Tuning: tuned dow a half step(Eb Ab Db Gb)
 verse 1 x3
Gb|-------------------------------3-------------------------------- 
Db|-----------------6-5-----6-5------------------------------------ 
Ab|-3 3 3-3-3-3-3-3-----6-3-----6---------------------------------- 
Eb|---------------------------------------------------------------- 
[ Tab from: http://www.guitartabs.cc/tabs/b/brand_new/sic_transit_gloria_glory_fades_btab_ver_5.html ]
Gb|----------------------------------------------------------------|
Db|-----------------6-5---6-5---6-5--------------------------------|
Ab|-3-3-3-3-3-3-3-3-----6-----6------------------------------------|
Eb|----------------------------------------------------------------|
pause when they sing "this is so messed up..."
  
then: verse 1 x2
   
chorus x2
Gb|----------------------------------------------------------------|
Db|---------------------------------1/33333333---------------------|
Ab|-33333333------------1/33333333---------------------------------|
Eb|-----------00000000--------------------------00000000-1---------|

verse 1 x2
  
pause when they sing "....life"
   
verse 1 x2

chorus x 2

bridge
G|-----------------------------------------------------------------|
D|-----------------------------------------------------------------|
A|-3-------3-------------------------------------------------------|
E|---4-4-----4-4--1-0-0--1-0-0-------------------------------------|

verse 1(first half only)
G|---------------------------------3-------------------------------|
D|------------------6-5-----6-5------------------------------------|
A|-3-3-3-3-3-3-3-3------6-3-----6----------------------------------|
E|-----------------------------------------------------------------|

chorus x2

thats the end of the song! enjoy!

| /  slide up
| \  slide down
| h  hammer-on
| p  pull-off
| ~  vibrato
| +  harmonic
| x  Mute note
Comments