Brand New - Sic Transit Gloria Chords & Tabs

 

Sic Transit Gloria Chords & Tabs

Brand New Chords & Tabs

Version: 1 Type: Bass Tab 1 rating
1 star 2 stars 3 stars 4 stars 5 stars
comments

Sic Transit Gloria Bass Tab

   
Artist: Brand New 
Song: Sic Transit Gloria.....Glory Fades
tuning: standard 
Sircallahan17

verse: first time 
G|----------------------------------| 
D|-----------------6-5------6-5---8-| 
A|-3-3-3-3-3-3-3-3------6-------6---| 
E|------------------------6---------| 

second time 
G|----------------------------------| 
D|-----------------6-5----6-5---6-5-| 
A|-3-3-3-3-3-3-3-3------6-----6-----| 
E|----------------------------------| 
[ Tab from: http://www.guitartabs.cc/tabs/b/brand_new/sic_transit_gloria_btab.html ]
Third Time
G|----------------------------------| 
D|-----------------6-5------6-5---8-| 
A|-3-3-3-3-3-3-3-3------6-------6---| 
E|------------------------6---------|

chorus 
G|-----------------------------| 
D|-----------------------------| 
A|-3-3-3-3-3-3-3-3-------------| 
E|-----------------1-1-1-1-1-1-|

chorus 
G|--------------------------| 
D|-------------1/3-3-3-3-33-| 
A|--1/3-3-3-3---------------| 
E|--------------------------|

chorus 
G|---------------| 
D|---------------| 
A|---------------| 
E|-1-1-1-1-1-1-1-|

Bridge
G|----------------------------------| 
D|----------------------------------| 
A|-3-------3------------------------| 
E|---4-4-----4-4----1-1-1----1-1-1--|





Comments