Brand New - Seventy Times 7 Chords & Tabs

 

Seventy Times 7 Chords & Tabs

Brand New Chords & Tabs

Version: 6 Type: Tab 0 ratings
1 star 2 stars 3 stars 4 stars 5 stars
comments

Seventy Times 7 Tab

I didn't tab this out, but I found it and thought it filled in some of the parts
the other tabs were missing. Hope this helps someone out.

Brand New - Seventy Times Seven
By: Brian Powers
This song is in E-flat


Intro
Guitar 1
e-------------------|
B-------------------|
G------7~--------7~-|
D-7~---7~---7x---7~-|
A-7~---5~---7x---5~-|
E-5~--------5x------|


Guitar 2
Hit this note over and over
  x12
e-----
B-----
G-----
D-7---
A-7---
E-5---


Intro Solo - Guitar 2
The intro uses an F Minor pentatonic scale.

e---------------------------------------------------------------------------------|
B---------------------------------------------14-14-14----------14-14-14----------|
G-----------------------------14----14-16-14~----------16-14-14----------16-14-14-|
D-------14----14-16-14~-16-16----16-----------------------------------------------|
A-16-16----16---------------------------------------------------------------------|
E---------------------------------------------------------------------------------|

e-----------------------|
B-----------------------|
G-------------14-16-----|
D-------14-16-------14~-|
A-16-16-----------------|
E-----------------------|

e-----------------------------------------------------------------------17-14-14-|
B--------------------------------------------------------------17-14-------------|
G----------------14-------14--------------------14-14h16p14----------16----------|
D----------14-16----16-------16-14~-------14-16-------------16-------------------|
A-14-14-16-------------16-----------16-16----------------------------------------|
E--------------------------------------------------------------------------------|

e-17-17-17-14-14-------17-14-14-------17-14----17/19-17-17h19p17-----------|
B----------------17-17----------17-17-------17-------------------17h19p17~-|
G--------------------------------------------------------------------------|
D--------------------------------------------------------------------------|
A--------------------------------------------------------------------------|
E--------------------------------------------------------------------------|


Guitar 2 plays this during the solo:
listen to song for rhythym, it's much like the intro
for the second guitar.
e--------------------------|
B--------------------------|
G-------9----7----9--------|
D--7----9----7----9--------|
A--7----7----5----7--------|
E--5-----------------------|


Verse - Guitar 1
16 notes each

PM|-------------------------|
e---------------------------|
B---------------------------|
G-------9----7----9---------|
D--7----9----7----9---------|
A--7----7----5----7---------|
E--5------------------------|


Guitar 2:
Verse
e|--------------------------------------------------------------------------|
B|--------------------------------------------------------------------------|
G|--------------------------------------------------------------------------|
D|-------------------------------------------9-9-7-7-6-6-----9-9-7-7-6-6----|
A|-------7-7-5-5-4-4------7-7-5-5-4-4----7-7-------------7-7----------------|
E|---5-5--------------5-5---------------------------------------------------|
pm   ...................................................................
[ Tab from: http://www.guitartabs.cc/tabs/b/brand_new/seventy_times_7_tab_ver_6.html ]
e|--------------------------------------------------------------------------|
B|--------------------------------------------------------------------------|
G|--------------------------------------------------------9-9-7-7-6h7p6h7p6-|
D|-------7-7-5-5-4-4------7-7-5-5-4-4--------9-9-7-7-6-6--------------------|
A|---5-5--------------5-5----------------7-7--------------------------------|
E|--------------------------------------------------------------------------|
pm   ...................................................

Chorus
16 notes each

e------------------|
B------------------|
G------7-------7---|
D-7----7---7---7---|
A-7----5---7---5---|
E-5--------5-------|


Breakdown(The quiet part):
e|------------------------------------------------------------------------|
B|------------------------------------------------------------------------|
G|-----------------7----6---------7---------------------------------------|
D|------7-------------------7---------------------------------------------|
A|------------------------------------------------------------------------|
E|-5----------5-----------------------------------------------------------|


   So lets end this call and end this conversation
e|------------------------------------------------------------------------|
B|----------------------------4------3------------------------------------|
G|-----3-----------------------------------3------8-----------------------|
D|------------------------------------------------------------------------|
A|------------------------------------------------------------------------|
E|-3--------------3-------------------------------------------------------|


   And is that what you call a getaway  Well tell me what you got away with
e|------------------------------------------------------------------------|
B|------------------------------------------------------------------------|
G|-------------------7-----6----------7-----------------------------------|
D|------7------------------------7----------------------------------------|
A|------------------------------------------------------------------------|
E|-5----------5-----------------------------------------------------------|


 Cuz you left the frays from the ties you severed when u say best friends means friends forever
e|-------------------------------------------------------------------------|
B|-------------------------------------------------------------------------|
G|-------------------7-----6-----------7-----------------------------------|
D|-----7-------------------------7-----------------------------------------|
A|-5-----------5-----------------------------------------------------------|
E|-------------------------------------------------------------------------|


Breakdown(The loud part):

e-----------------------------|
B-----------------------------|
G--------------7--------------|
D--7---4---2---7--------------|
A--7---4---2---5--------------|
E--5---2---0------------------|


End with - Guitar 1
e|-------------|
B|-------------|
G|-------------|
D|--7-7---7-7--|
A|--7-7---7-7--|
E|--5-5---5-5--|

Guitar 2
e|-----------------9--10--12--7------------|
B|------9---10--12-------------------------|
G|--9--------------------------------------|
D|-----------------------------------------|
A|-----------------------------------------|
E|-----------------------------------------|
Comments