Brand New - Seventy Times 7 Chords & Tabs

 

Seventy Times 7 Chords & Tabs

Brand New Chords & Tabs

Version: 4 Type: Tab 0 ratings
1 star 2 stars 3 stars 4 stars 5 stars
comments

Seventy Times 7 Tab

----------------------------------------------------------------------------
		       Seventy Times 7 - Brand New
----------------------------------------------------------------------------
Tabbed by: Mike
This is as close to right as possibe, without having written the song or had the
person who wrote it tell me. as far as the solo goes, play around with it. I dont
have the solo perfect; if you get it good for you but i have it close enough to
sound great and with some room to change it around a little. dont listen to that
asshole whos dissing people and think he knows what hes talking about...this is
the real shit:

Tuning: Down 3 frets

~~> let it ring
~   hammer on/pull off
>>> 



Intro 1

guitar 1
|-------------------------------------------------------------------------|
|-------------------------------------------------------------------------|
|--------------------------11------------------------------11-------------|
|--9-----------------------11------99----------------------11-------------|
|--9--~~>------------------9-~~>---99----------------------9-~~>----------|
|--7-------------------------------77-------------------------------------|
guitar 2
|-------------------------------------------------------------------------|
|-------------------------------------------------------------------------|
|--------------------------99-9-9-9------------------------99-9-9-9-------|
|--99-9-9-999-9-9-999-9-9-999-9-9-999-9-9-999-9-9-999-9-9-999-9-9-9-------|
|--99-9-9-999-9-9-999-9-9-977-7-7-799-9-9-999-9-9-999-9-9-977-7-7-7-------|
|--77-7-7-777-7-7-777-7-7-7--------77-7-7-777-7-7-777-7-7-7---------------|

Intro part 2 (solo)

guitar 1
|-------------------------------------------------------------------------|
|-------------------------------------------------------------------------|
|------------------16-16-16-18-16---20-20-20-18-16-20-20-20-18-16---------|
|-16-15-16-18-16----------------------------------------------------------|
|-------------------------------------------------------------------------|
|-------------------------------------------------------------------------|
guitar 2 (same rhythm as above)
|-------------------------------------------------------------------------|
|-------------------------------------------------------------------------|
|------------------11---------------9-------------------------------------|
|-9----------------11---------------9-------------------------------------|
|-9----------------9----------------7-------------------------------------|
|-7-----------------------------------------------------------------------|
          guitar 1
          |---------------------------------------------------------------|
continued |---------------------------------------------------------------|
  from    |---------------------------------------------------------------|
 above    |-16-15-16-18-16------------------------------------------------|
          |---------------------------------------------------------------|
          |---------------------------------------------------------------|
          guitar 2
          |---------------------------------------------------------------|
          |---------------------------------------------------------------|
          |---------------------------------------------------------------|
          |-9-------------11----------------------------------------------|
          |-9-------------11----------------------------------------------|
          |-7-------------9-----------------------------------------------|
guitar 2, play that again
guitar 1 solo continues
|-------------------------------------------------------------------------|
|-------------------------------------------------------------------------|
|-------------------------------------------------------------------------|
|----------------------18-16-----------------16-18-16-20-18-16------------|
|-------13-16-16-18-16-------18--------16-18------------------------------|
|-14-16--------------------------16-18------------------------------------|

|-19----------19----------19-------21-19-19~21~19-------------------------|
|----21-19-19----21-19-19----21-19----------------21-19-------------------|
|-------------------------------------------------------------------------|
|-------------------------------------------------------------------------|
|-------------------------------------------------------------------------|
|-------------------------------------------------------------------------|

VERSE
[ Tab from: http://www.guitartabs.cc/tabs/b/brand_new/seventy_times_7_tab_ver_4.html ]
guitar 1 palm mute(kinda low in the mix, listen to the song youll hear it)
|-------------------------------------------------------------------------|
|-------------------------------------------------------------------------|
|-------------------------------------------------------------------------|
|--------------------------------------11-11-9-9-8-8-----11-11-9-9-8-8----|
|-----9-9-7-7-6-6-----9-9-7-7-6-6--9-9---------------9-9------------------|
|-7-7-------------7-7-----------------------------------------------------|
guitar 2 palm mute
|-------------------------------------------------------------------------|
|-------------------------------------------------------------------------|
|----------------------------------111111-11-11111111111111-11-11111111---|
|-9-9-9-9-9-9-9-9-9-9-9-9-9-9-9-9--111111-11-11111111111111-11-11111111---|
|-9-9-9-9-9-9-9-9-9-9-9-9-9-9-9-9--9-9-9--9--9-9-9-9-9-9-9--9--9-9-9-9----|
|-7-7-7-7-7-7-7-7-7-7-7-7-7-7-7-7-----------------------------------------|
  "Back in school..."              "Like how to deal..."
guitar 1                                              
|-------------------------------------------------------------------------|
|-------------------------------------------------------------------------|
|----------------------------------------------------11-11-9-9-8-8-8~9~8--|
|-----9-9-7-7-6-6-----9-9-7-7-6-6------11-11-9-9-8-8----------------------|
|-7-7-------------7-7--------------9-9------------------------------------|
|-------------------------------------------------------------------------|
                                                     |--^--not muted--^--|
guitar 2
|-------------------------------------------------------------------------|
|-------------------------------------------------------------------------|
|-9-9-9-9-9-9-9-9-9-9-9-9-9-9-9-9-----------------------------------------|
|-9-9-9-9-9-9-9-9-9-9-9-9-9-9-9-9--111111-11-1111111111111111-11-1111111--|
|-7-7-7-7-7-7-7-7-7-7-7-7-7-7-7-7--9-9-9--9--9-9-9-9-9-9-9-9--9--9-9-9-9--|
|-------------------------------------------------------------------------|
  "For 12 years..."                "Night like this..."


Do that 2 times for the full verse

CHORUS

guitar 1
|-------------------------------------------------------------------------|
|-------------------------------------------------------------------------|
|------------------11--------------------------------11-------------------|
|-9----------------11->>>-----------6----------------11->>>---------------|
|-9->>>------------9----------------6->>>------------9--------------------|
|-7---------------------------------4-------------------------------------|
guitar 2 -- some fill notes here and there
|-------12---------------14----12---------12-----------------14----12-----|
|----------12-16-12---------12----12---------12-16-12-----------12----12--|
|-------------------------------------------------------------------------|
|-------------------------------------------------------------------------|
|-------------------------------------------------------------------------|
|-------------------------------------------------------------------------|

VERSE 2 -- same as verse 1, but pause for the "i hope you choke and die" part.
after that part, guitar 2 plays the chords not muted.

CHORUS -- X2

BRIDGE -- mainly bass, theres some quiet fill notes in it tho

bass does
|-------------------------------------------------------------------------|
|-------------------------------------------------------------------------|
|-------------------------------------------------------------------------|
|-------------------------------------------------------------------------|
|-------------------------------------------------------------------------|
|-9->>>--4->>>--2->>>--9--0->>>-------------------------------------------|

after 4 times (when "is that what you call tact?" comes in)
either guitar (with echo/tremelo)
|-------------------------------------------------------------------------|
|-------------------------------------------------------------------------|
|---------9-8------------------9-8---11-----------------------------------|
|------9------9-6-----------9------9---------X-2--------------------------|
|----9--------------------9-----------------------------------------------|
|--7--------------------0-------------------------------------------------|

OUTRO
guitar 1
|-------------------------------------------------------------------------|
|-------------------------------------------------------------------------|
|-------------------------------------------------------------------------|
|--11---------------6------------------4----------------2-----------------|
|--11->>>-----------6->>>--------------4->>>------------2->>>-------------|
|--9----------------4------------------2----------------0-----------------|
guitar 2
|-----14-12-----12----14----12----11--------------------------------------|
|--12--------12----12----12----12----12----???plays?notes???------11-8-9--|
|-------------------------------------------------------------------------|
|-------------------------------------------------------------------------|
|-------------------------------------------------------------------------|
|-------------------------------------------------------------------------|
^4 times...on the second and 4th time, put breaks in on the last chord

as far as the outro goes, that basically it. the high part fades in and out of
the mix, and isnt important enough to fuss over. just play some notes that youve
played earlier for the part i dont know and quite honestly it'll sound good.

and thats all yeh need to know
Comments