Brand New - Seventy Times 7 Chords & Tabs

 

Seventy Times 7 Chords & Tabs

Brand New Chords & Tabs

Version: 3 Type: Tab 0 ratings
1 star 2 stars 3 stars 4 stars 5 stars
comments

Seventy Times 7 Tab

   
-------------------------------------------------------------------------------
			 Brand New - Seventy Times 7
-------------------------------------------------------------------------------

Tabbed by:Mike

yea this is the real version with almost all the parts and the minor parts that
other ppl didnt tab. the only part i didnt get is the solo, which isnt hard to do
and the faint guitar line over the chorus

Tuning: tune down the bottom 4 strings 3 frets (you dont need the top 2)

e
b
e
b
f sharp
c

GUITAR 1 the rhythms tricky but listen to the song
|---------------------------------------------------------------------------|
|---------------------------------------------------------------------------|
|----------------------------------9-9-9-9-9----------x-2-------------------|
|-9-9-9-9-9--9-9-9-9-9--9-9-9-9-9--9-9-9-9-9--------------------------------|
|-9-9-9-9-9--9-9-9-9-9--9-9-9-9-9--7-7-7-7-7--------------------------------|
|-7-7-7-7-7--7-7-7-7-7--7-7-7-7-7-------------------------------------------|

GUITAR 2
|---------------------------------------------------------------------------|
|---------------------------------------------------------------------------|
|----------------------------------9------------------------------9---------|
|-9--------------------------------9--RING-----9------------------9--RING---|
|-9-----LET-IT-RING----------------7-----------9--DONT-LET-RING---7---------|
|-7--------------------------------------------7----------------------------|


GUITAR ONE - SOLO

GUITAR 2
|---------------------------------------------------------------------------|
|---------------------------------------------------------------------------|
|-----------------------1111111111-1111111111-9-9-9-9-9--9-9-9-9-9----------|
|-9-9-9-9-9--9-9-9-9-9--1111111111-1111111111-9-9-9-9-9--9-9-9-9-9----------|
|-9-9-9-9-9--9-9-9-9-9--9-9-9-9-9--9-9-9-9-9--7-7-7-7-7--7-7-7-7-7----------|
|-7-7-7-7-7--7-7-7-7-7------------------------------------------------------|

|---------------------------------------------------------------------------|
|---------------------------------------------------------------------------|
|------------1111111111-----------------------------------------------------|
|-9-9-9-9-9--1111111111-----THAT-PROGRESSION-2X-----------------------------|
|-9-9-9-9-9--9-9-9-9-9------------------------------------------------------|
|-7-7-7-7-7-----------------------------------------------------------------|

VERSE

GUITAR ONE
|---------------------------------------------------------------------------|
|---------------------------------------------------------------------------|
|---------------------------------------------------------------------------|
|-------------------------------------11-11-9-9-8-8-----11-11-9-9-8-8-------|
|-----9-9-7-7-6-6-----9-9-7-7-6-6-9-9---------------9-9---------------------|
|-7-7-------------7-7-------------------------------------------------------|
[ Tab from: http://www.guitartabs.cc/tabs/b/brand_new/seventy_times_7_tab_ver_3.html ]
|---------------------------------------------------------------------------|
|---------------------------------------------------------------------------|
|---------------------------------------------------11-11-9-9-8-8-8-9-8-----|
|-----9-9-7-7-6-6-----9-9-7-7-6-6-----11-11-9-9-8-8-------------------------|
|-7-7-------------7-7-------------9-9---------------------------------------|
|---------------------------------------------------------------------------|
(ALL PALM MUTED EXCEPT FOR..........................(----THIS LINE--^^--)
2 TIMES

GUITAR 2 (PALM MUTED)
|---------------------------------------------------------------------------|
|---------------------------------------------------------------------------|
|---------------------------------------------------------------------------|
|---------------------------------11111111111111111111111111111111----------|
|-9-9-9-9-9-9-9-9-9-9-9-9-9-9-9-9-9-9-9-9-9-9-9-9-9-9-9-9-9-9-9-9-----------|
|-7-7-7-7-7-7-7-7-7-7-7-7-7-7-7-7-------------------------------------------|

|---------------------------------------------------------------------------|
|---------------------------------------------------------------------------|
|---------------------------------------------------------------------------|
|-9-9-9-9-9-9-9-9-9-9-9-9-9-9-9-9-11111111111111111111111111111111----------|
|-7-7-7-7-7-7-7-7-7-7-7-7-7-7-7-7-9-9-9-9-9-9-9-9-9-9-9-9-9-9-9-9---X2------|
|---------------------------------------------------------------------------|
CHORUS
GUITAR 1 -SOME HIGH NOTE THINGY...ITS LOW IN THE MIX I CANT FIGURE IT OUT

GUITAR 2
|---------------------------------------------------------------------------|
|---------------------------------------------------------------------------|
|---------9-----------------------------------------------------------------|
|-9-------9-------6-------9-------------------------------------------------|
|-9--~~~>-7--~~~>-6--~~~>-9-------------------------------------------------|
|-7---------------4-------7-------------------------------------------------|

VERSE AGAIN, THIS TIME WHEN HE SAYS "I HOPE YOU CHOIKE AND DIE" SLIDE DOWN ON THE
A STRING THEN BACK UP

CHORUS AGAIN

BRIDGE

SIMPLE BASS PROGRESSION OF
|---------------------------------------------------------------------------|
|---------------------------------------------------------------------------|
|---------------------------------------------------------------------------|
|---------------------------------------------------------------------------|
|---------------------------------------------------------------------------|
|-7--4--2--7-0--------------------------------------------------------------|

THERES A FEW QUIET FILL NOTES HERE AND THERE DURING THE SECOND HALF, LISTEN TO
THE SONG AND YOULL KNOW WHEN TO PLAY THEM

EITHER GUITAR -
|---------------------------------------------------------------------------|
|---------------------------------------------------------------------------|
|--------9-8-6-------------9-8---9------------------------------------------|
|------9-----------------9-----9--------------------------------------------|
|---9-----------------9-----------------------------------------------------|
|-7-----------------7-------------------------------------------------------|

OUTRO

|---------------------------------------------------------------------------|
|---------------------------------------------------------------------------|
|---------------------------------------------------------------------------|
|-9-9-9-9-9-9-9-9-6-6-6-6-6-6-6-6-4-4-4-4-4-4-4-4-2-2-2-2-2-2-2-2-----------|
|-9-9-9-9-9-9-9-9-6-6-6-6-6-6-6-6-4-4-4-4-4-4-4-4-2-2-2-2-2-2-2-2--X4-------|
|-7-7-7-7-7-7-7-7-4-4-4-4-4-4-4-4-2-2-2-2-2-2-2-2-0-0-0-0-0-0-0-0-----------|
 THE SECOND AND 4TH TIME PAUSE ON THE LAST CHORD...LISTEN TO THE SONG

^ and thats all ya need to know
Comments