Brand New - Seventy Times 7 Chords & Tabs

 

Seventy Times 7 Chords & Tabs

Brand New Chords & Tabs

Version: 1 Type: Tab 0 ratings
1 star 2 stars 3 stars 4 stars 5 stars
comments

Seventy Times 7 Tab

Band  : Brand New
Song  : Seventy Times 7 ('track 9)
Album : Favorite Weapon ('2001)

Alright, this tab is Definetily right, this is just the rythm tho, because
i don't have time to tab out the lead parts. If u try, i'm sure u can get it.

THIS SONG IS IN DROP D!!

GT 1. INTRO pt. 1

e------------------------------
B------------------------------
G------------------------------
D-2~~~--7~~-2x---7~~-----------
A-0~~~--5~~-0x---5~~-----------
D------------------------------

GT 2. INTRO pt. 1 (you'll have to figure out the strum pattern on this one)

e--------------------------------
B--------------------------------
G--------------------------------
D--2----7---2----7---------------
A--0----5---0----5---------------
D--------------------------------

GT 1. INTRO pt. 2 (again, you'll have to figure out the strum pattern)

e-----------------------------------
B-----------------------------------
G-----------------------------------
D-2--9--7--9--7---------------------
A-0--7--5--7--5---------------------
D-----------------------------------

GT. 2 plays little solo that i dont' have time to tab out.

VERSE 1: Palm Mute "GT. 1 INTRO pt. 2"
[ Tab from: http://www.guitartabs.cc/tabs/b/brand_new/seventy_times_7_tab.html ]
CHORUS (both guitars) (figure our strumming)

e-------------------
B-------------------
G-------------------
D--2---7------------
A--0---5------------
D-------------------

Verse 2= Same as verse 1 until he says "don't apologize, i hope u choke and die"
THen....the chords are strummed instead of Palm Muted, he does a little slide
down the fretboard from the 7th fret on the E string during the chant!!

Hold out an A5 when bass solo starts!!

WHEN GUITARS COME BACK IN~~

e----------------------------------
B----------------------------------
G----------------------------------
D-7--4--2--0-----------------------
A-7--4--2--0-----------------------
D-7--4--2--0-----------------------

This is repeated until the end of the song
When he says "again when your head goes through the windshield" you just hit the
open D5 chord twice to go along with the drums, you also do this at the very end
of the song, to go along with the drums.

Alright, that's pretty much it, i wish i had more time, i could do the solo
and the quiet little guitar part during the bass solo. Check out my band WRONG
WAY HOME at http://wrongwayhome.brandonallen.org/wwh

~BYE~

*STEPHEN BURN*
Comments