Brand New - Quiet Things No One Ever Knows Chords & Tabs

 

Quiet Things No One Ever Knows Chords & Tabs

Brand New Chords & Tabs

Version: 1 Type: Tab 0 ratings
1 star 2 stars 3 stars 4 stars 5 stars
comments

Quiet Things No One Ever Knows Tab

for some reason no one has been able to tab this right 

intro-let notes ring
-------3p2------2----------------3p2-----0-------------
-------------3-----3------------------3------3---------
-------------------------------------------------------
-------------------------------------------------------
-------------------------------------------------------
--3------------------------0---------------------------


-----3p2-------2----------------3p2------2-------3/5---
------------3-----3-------------------3------3---------
-------------------------------------------------------
---------------------------0---------------------------
--3----------------------------------------------------
-------------------------------------------------------
[ Tab from: http://www.guitartabs.cc/tabs/b/brand_new/quiet_things_no_one_ever_knows_tab.html ]
lead guitar play 4 times
-------------------------------------------------------
-----------------15------------------------------------
-11--12--11--12------12--11--12------------------------
-------------------------------------------------------
-------------------------------------------------------
-------------------------------------------------------

play 2 times than the above riff 2 times then switch, etc.
-----------------15------------------------------------
-12--13--12--13------13--12--13------------------------
-------------------------------------------------------
-------------------------------------------------------
-------------------------------------------------------
-------------------------------------------------------

tab submitted by c sterling enjoy!
Comments