Brand New - Okay I Believe You But My Tommy Gun Dont Chords & Tabs

 

Okay I Believe You But My Tommy Gun Dont Chords & Tabs

Brand New Chords & Tabs

Version: 2 Type: Bass Tab 0 ratings
1 star 2 stars 3 stars 4 stars 5 stars
comments

Okay I Believe You But My Tommy Gun Dont Bass Tab

   
Song - Okay I Believe You, But My Tommy Gun Don't
Artist - Brand New
Album - Deja Entendu
Tabbed by - Daniel Cummins - dan_the_man_no1@hotmail.com

Tune Down 1/2 step (Eb, Ab, Db, Gb)

Come In At the 1st Chorus at 2:09 -
CHORUS -
Gb|----------------------------------------|
Db|----------------------------------------|
Ab|-------------33333333----------33333333-|
Eb|-10/33333333----------00000000----------|

Gb|-------------------------------------|
Db|-------------------------------------|
Ab|-------------------00000000-33333333-|
Eb|-00000000-33333333-------------------|

VERSE PT. 1 - 
Gb|------------------------|
Db|-22-2222-2255-55--------|
Ab|-----------------3333---|
Eb|----------------------0-|

VERSE PT. 2 -
Gb|------------------------------------------------------------------------------------------|
Db|------------------------------------------------------------------------------------------|
Ab|-55555555-222222222-----------77777777\55555555-222222222----------7777666655555555555555-|
Eb|--------------------333333333-----------------------------33333333------------------------|

CHORUS -
Gb|----------------------------------------|
Db|----------------------------------------|
Ab|-------------33333333----------33333333-|
Eb|-10/33333333----------00000000----------|

Gb|-------------------------------------|
Db|-------------------------------------|
Ab|-------------------00000000-33333333-|
Eb|-00000000-33333333-------------------|
[ Tab from: http://www.guitartabs.cc/tabs/b/brand_new/okay_i_believe_you_but_my_tommy_gun_dont_btab_ver_2.html ]
Gb|-------------------------------------|
Db|-------------------------------------|
Ab|----------33333333----------33333333-|
Eb|-33333333----------00000000----------|

Gb|-------------------------------------|
Db|-------------------------------------|
Ab|-------------------00000000-33333333-|
Eb|-00000000-33333333-------------------|

BRIDGE PT. 1 -
Gb|-----------|
Db|-----------|
Ab|---7~------|
Eb|-0----0-0~-|

BRIDGE PT. 2 -
Gb|------------------------|
Db|-22-2222-2255-55--------|
Ab|-----------------3333---|
Eb|----------------------0-|

CHORUS - 
Gb|---------------------------------------|
Db|---------------------------------------|
Ab|-------------33333333---------33333333-|
Eb|-10/33333333----------00000000---------|

Gb|-------------------------------------|
Db|-------------------------------------|
Ab|-------------------00000000-33333333-|
Eb|-00000000-33333333-------------------|

Gb|-------------------------------------|
Db|-------------------------------------|
Ab|----------33333333----------33333333-|
Eb|-33333333----------00000000----------|

Gb|-------------------------------------|
Db|-------------------------------------|
Ab|-------------------00000000-33333333-|
Eb|-00000000-33333333-------------------|

OUTRO - 
Gb|----------------------|
Db|----------------------|
Ab|---7~---3-------------|
Eb|-0----23-3-2313-------|

Gb|-----------|
Db|-----------|
Ab|---7~---3--|
Eb|-0----23-3-|

I dont think This is perfect but its Very Very close if not perfect. Please Rate and comment.
Comments