Brand New - Okay I Believe You But My Tommy Dont Chords & Tabs

 

Okay I Believe You But My Tommy Dont Chords & Tabs

Brand New Chords & Tabs

Version: 1 Type: Tab 0 ratings
1 star 2 stars 3 stars 4 stars 5 stars
comments

Okay I Believe You But My Tommy Dont Tab

This Is Cpt.Winkyy again this is my 3rd song tabbed for this sight and it should be all right 

P.M=Palm Mute
Intro/Verse Clean (Guitar 1)               
e --------------------------------------- 
B ---------------------------------------| 
G|---------------------------------------| 
D|-9-9-9-9-9-9-9-9/12-12-12-12-----------|
A|-7-7-7-7-7-7-7-7/12-10-10-10--10-10-10-|
E|-------------------------------8--8--8-

[ Tab from: http://www.guitartabs.cc/tabs/b/brand_new/okay_i_believe_you_but_my_tommy_dont_tab.html ]
Pre-chorus 
E|-----------------------------------------------------------------I------------------| 
B|-----------------------------------------------------------------I------------------| 
G|-----------------------------------------------------------------I------------------| 
D|--------------------------------------1212121212121212--99999999-I------------------| 
A|1212121212121212-10101010101010101010-1010101010101010--77777777-I-1212121212121212-| 
E|1010101010101010--8-8-8-8-8-8-8-8-8-8----------------------------I-1010101010101010-| 
   P.M             P.M           P.M                    P.M              P.M              P.M

Chorus (2x)
E|--------------------------------|
B|--------------------------------|
G|---------5---------------5------|
D|-5-------5-(4x)--2-------5-(4x)-|
A|-5-(4x)--3-------2-(4x)--3------| 
E|-3---------------0--------------|

Interlude
e|---------------------------------------------------
B-----------------------------------------------------
G|---9-----------9-----------9-----------9--------------------
D /2-x--2-2--2-x--2-2--2-x--2-2--2x--2-2------------------
A|2-7--2-2--2-7--2-2--2-7--2-2--2-7--2-2--------------
E|0----0-0--0----0-0-0----0-0--0----0-0------------------


Ending
E|----------------------------------------------------------------
B|----------------------------------------------------------------
G|---9-----------------------9--------------------------
D|2-x--------------------2-x------------------------------------|
A|2-7-----3--------------2-7-----3------------------------------|
E|0---2-3---3-2-3-1-3----0---2-3---3----------------------------|
        P.M                        P.M                        P.M
Comments