Brand New - My Nine Rides Shotgun Chords & Tabs

 

My Nine Rides Shotgun Chords & Tabs

Brand New Chords & Tabs

Version: 1 Type: Tab 0 ratings
1 star 2 stars 3 stars 4 stars 5 stars
comments

My Nine Rides Shotgun Tab

I was disappointed that there was no tab for this, so heres my version.

Artist - Brand New
Album - Your Favourite Weapon (Vinyl)
Song - My Nine Rides Shutgun
Tuning - Standard

*on a side note, this is the only Brand New song that ive seen not tuned a half step
down, but im sure they probably play it all a half step down. So if youd like, just
transpose it all up a fret.

Also, I know its a lot of reading, but please bare with my explanations. They might
seem complicated, but theyre necassary because theres a lot of stuff going on in this
song aside from guitar, especially the verse.


Intro

I divided this into the two parts of the intro you hear, listen to the song, straightforward enough.

e|--------------------------------------------------------------------------|
B|--------------------------------------------------------------------------|
G|-7-7777-------------------------------------------------------------------|
D|-7-7777--4444---555555--9/7-777777--55444444------------------------------|
A|-5-5555--4444---555555--9/7-777777--55444444------------------------------|
E|---------2222---333333--7/5-555555--33222222------------------------------|

e|---------------------------------------------------------------------------|
B|---------------------------------------------------------------------------|
G|-7-7777--------------------------------------------------------------------|
D|-7-7777--4444---555555--9/7-777777--5/4--5/4-------------------------------|
A|-5-5555--4444---555555--9/7-777777--5/4--5/4-------------------------------|
E|---------2222---333333--7/5-555555--3/2--3/2-------------------------------|


Verse

The verse of this tab is pretty hard to hear and tab, which may be why there are no other
tabs for it. It seems either no guitars at all are playing for some of the verse, or
that, more likely, they are using an effect i can not seem to emulate. So im going to
show the guitar sounding part, thats hard to hear with the bass and stuff there, that
through the first half of the verse, until 0:35 ("this isnt the first time, it wont be
the last time") hits 4 times on the stressed lyrics, then after that, palm mutes until
the prechorus and chorus start. Once again, im dividing it in half, before and after 0:35
seconds.


e|---------------------------------------------------------------------------|
B|---------------------------------------------------------------------------|
G|----------7----------------------------------------------------------------|
D|--7---5---7---5------------------------------------------------------------|
A|--7---5---5---5------------------------------------------------------------|
E|--5---3-------3------------------------------------------------------------|

e|---------------------------------------------------------------------------|
B|---------------------------------------------------------------------------|
G|---------------------------------------------------------------------------|
D|--7777777777777777---555555555-5-------------------------------------------|
A|--7777777777777777---555555555-5-------------------------------------------|
E|--5555555555555555---333333333-3-------------------------------------------|
    ................   ......... .


Pre-Chorus

This is very simple. Two chord hits after a breif break from the verse, on "HAVE fun"
and "OVERseas". Listen, youll know what i mean, once again. After that, its just one
chord palm muted throughtout, starting right after he finishes singing the note
for "overseas..." Continue playing this palm muting until the chorus starts, when he
finishes singing "take my advice"

e|--------------------|
B|--------------------|
G|------------777777--|
D|--0---5-----777777--|  (repeat until chorus)
A|--0---5-----555555--|
E|--0---3-------------|
              ......

Chorus

Again, quite simple. Ive divided this one in two, the first "half" of the chorus "but
theyre marking territory, and i know a million girls who would kill to be you right now."
The second part, being the same thing, just with the chords being played half as much and
with more emphasis, the words to this half "give me one night inside of your thighs" etc.
Just listen for the timing, shouldnt be a problem. Ive shown the spacing out in the
timing in the second part, not that you needed it.
[ Tab from: http://www.guitartabs.cc/tabs/b/brand_new/my_nine_rides_shotgun_tab.html ]
e|---------------------------------------------------------------------------|
B|---------------------------------------------------------------------------|
G|-------------------7777777777777777----------------------------------------|
D|-5555555555555555--7777777777777777--5555555555555555--7777777777777777----|
A|-5555555555555555--5555555555555555--5555555555555555--7777777777777777----|
E|-3333333333333333--------------------3333333333333333--5555555555555555----|

e|---------------------------------------------------------------------------|
B|---------------------------------------------------------------------------|
G|------------------7-7-7-7-7-7-7-7------------------------------------------|
D|-5-5-5-5-5-5-5-5--7-7-7-7-7-7-7-7--5-5-5-5-5-5-5-5--7-7-7-7-7-7-7-7--------|
A|-5-5-5-5-5-5-5-5--5-5-5-5-5-5-5-5--5-5-5-5-5-5-5-5--7-7-7-7-7-7-7-7--------|
E|-3-3-3-3-3-3-3-3-------------------3-3-3-3-3-3-3-3--5-5-5-5-5-5-5-5--------|

Bridge

I dont know that this isnt part of the chorus, but since its after im calling it a
bridge. This is the part with the words "and its happened before, and itll happen again."
Listen for timing, takes a few practice runs but like the rest of the song, once you
learn it its quite easy. Once again, divided into two parts, the second one with the
emphasized ending leading back into the intro part. Listen and learn.


e|---------------------------------------------------------------------------|
B|---------------------------------------------------------------------------|
G|------7--------------------77777777----------------------------------------|
D|--00--7--9--7---5-555---7--77777777----------------------------------------|
A|--00--5--9--7---5-555---7--55555555----------------------------------------|
E|--00-----7--5---3-333---5--------------------------------------------------|

e|---------------------------------------------------------------------------|
B|---------------------------------------------------------------------------|
G|------7--------------------------------------------------------------------|
D|--00--7--9--7----5---7-----------------------------------------------------|
A|--00--5--9--7----5---7-----------------------------------------------------|
E|--00-----7--5----3---5-----------------------------------------------------|


Outro

The outro here starts off as led into by the second time the "Bridge" is played. Where
the first time the bridge led into the intro, this time there is no choppy ending and
its just rythym and then a final outro part, and the song comes to an end. First, ive
showed hwo the bridge newly leads into the outro. You do the first part of the bridge
normally, then finish off with the way i show it here. The rest of the outro is just
the normal bridge played, palm muted. Ill show it anyway, afterward. You end on the
last 3 chords, emphasized. Then youre all set.

e|---------------------------------------------------------------------------|
B|---------------------------------------------------------------------------|
G|------7------------------------77777777------------------------------------|
D|--00--7--9--7----5555---7777---77777777------------------------------------|
A|--00--5--9--7----5555---7777---55555555------------------------------------|
E|--00-----7--5----3333---5555-----------------------------------------------|


e|---------------------------------------------------------------------------|
B|---------------------------------------------------------------------------|
G|--------7777------------------------------77777777-------------------------|
D|--0000--7777--9999--7777----5555---7777---77777777-------------------------|
A|--0000--5555--9999--7777----5555---7777---55555555-------------------------|
E|--0000--------7777--5555----3333---5555------------------------------------|
    ....  ....  ....  ....    ....   ....   ........

e|---------------------------------------------------------------------------|
B|---------------------------------------------------------------------------|
G|--------7777--------------------------------7------------------------------|
D|--0000--7777--9999--7777----5555----5---7---7------------------------------|
A|--0000--5555--9999--7777----5555----5---7---5------------------------------|
E|--0000--------7777--5555----3333----3---5----------------------------------|
    ....  ....  ....  ....    ....

*** when the 0 chord is used, dead note the low string, it sounds genuine.
             0
             0

And that would be it. I hope this helps you out.
Comments