Brand New - Mix Tape Chords & Tabs

 

Mix Tape Chords & Tabs

Brand New Chords & Tabs

Version: 4 Type: Tab 0 ratings
1 star 2 stars 3 stars 4 stars 5 stars
comments

Mix Tape Tab

This is for if you don't want to play it tuned down a half step.  Just Drop D.

Verse one:
e------------------------------------------||
b------------------------------------------||
g----5---5---5---5-----5---5---3---3---3---||
d---6---6-6---6---6---6---6-6---6---6---6--||
a--6---6---6---6-----4---4---4---4---4-----||
d------------------------------------------||
I've got a twenty dollar...   

e--------------------------------------------------------||
b--------------------------------------------------------||
g--6-----------------------------------------------------||
d--6-----------------------------------------------6-----||
a--4-----------------------------------------------6-----||
d--------------------------------------------------6-----||
 distortion: "used to spend before you got to cool"

[ Tab from: http://www.guitartabs.cc/tabs/b/brand_new/mix_tape_tab_ver_4.html ]
listen to the song for how long to play the next part
guitar one:
e-----------------------------------||
d-----------------------------------||
g---------------------6-----6-------||
d------6-----6--------6-----6-------||
a------6-----6----4-4-4-4-4-4—etc---||
d--6-6-6-6-6-6—etc------------------||

guitar two:
e--------------------------------------------------------------------||
b--------------------------------------------------------------------||
g---------------------------------------6-----6—-10-10-10-10-10-8-6--||
d-----6-----6---------------------------6-----6----------------------||
a-----6-----6----6h8p6-6h8p6-6h8p6--4-4-4-4-4-4----------------------||
d-6-6-6-6-6-6-6-6-----------6-----6----------------------------------||

REPEAT GUITARS ONE AND TWO

Second Verse:
Guitar one: Play the two chords (Db and Ab...or if you prefer, C# and G#)periodically
Guitar two: Pick the notes like verse one.
Comments