Brand New - Jude Law And A Semester Abroad Acoustic Chords & Tabs

 

Jude Law And A Semester Abroad Acoustic Chords & Tabs

Brand New Chords & Tabs

Version: 1 Type: Tab 0 ratings
1 star 2 stars 3 stars 4 stars 5 stars
comments

Jude Law And A Semester Abroad Acoustic Tab

-----------------------------------------------------------------------
Jude Law and a semester abroad(acoustic) - Brand New
-----------------------------------------------------------------------Tabbed by: Shawn 
Email: gtgoten92@optonline.net

Tuning: EADGBE
Guitar 1
0.01-0.55 secs.
e|--------------------------------------------------------------------|
B|--------------------------------------------------------------------|
G|---6------9---------------------------------------------------------|
D|---6-x6---9-x6-6-----9----------------------------------------------|
A|---4------7----6-x6--9-x6-------------------------------------------|
e|---------------4-----7----------------------------------------------|
  And for every time you fed me the line, "you mean so much to me...".
e|--------------------------------------------------------------------|
B|--------------------------------------------------------------------|
G|-4------2-----------------------------------------------------------|
D|-4-x8---2-x4--------------------------------------------------------|
A|-2------0-----------------------------------------------------------|
e|--------------------------------------------------------------------|
Chorus-	
e|----0------0--------------------------------------------------------|
B|----0------0--------------------------------------------------------|
G|----9------8------6------4------------------------------------------|
D|----9-x2---9-x2---6-x7---4-x7----------X2---------------------------|
A|----7------6------4------2------------------------------------------|
e|--------------------------------------------------------------------|

e|--------------------------------------------------------------------|
B|--------------------------------------------------------------------|
G|---6------9---------------------------------------------------------|
D|---6-x6---9-x6-6-----9----------------------------------------------|
A|---4------7----6-x6--9-x6-------------------------------------------|
e|---------------4-----7----------------------------------------------|

e|--------------------------------------------------------------------|
B|--------------------------------------------------------------------|
G|-4------2-----------------------------------------------------------|
D|-4-x8---2-x4--------------------------------------------------------|
A|-2------0-----------------------------------------------------------|
e|--------------------------------------------------------------------|

Chorus-
e|----0------0--------------------------------------------------------|
B|----0------0--------------------------------------------------------|
G|----9------8------6------4------------------------------------------|
D|----9-x2---9-x2---6-x7---4-x7----------X2---------------------------|
A|----7------6------4------2------------------------------------------|
e|--------------------------------------------------------------------|



e|----0------0--------------------------------------------------------|
B|----0------0--------------------------------------------------------|
G|----9------8------6------4------------------------------------------|
D|----9------9------6------4------------------------------------------|
A|----7------6------4------2------------------------------------------|
e|----XXXXXXXXXXXXXXXXXXXXXX------------------------------------------|

e|----0------0--------------------------------------------------------|
B|----0------0-----2--------------------------------------------------|
G|----9------8-----2----6------4--------------------------------------|
D|----9-x8---9-x8--0-x8-6-x4---4x4-----------------------------------|
A|----7------6----------4------2--------------------------------------|
E|--------------------------------------------------------------------|

GUITAR 2
e|--------------------------------------------------------------------|
B|--------------------------------------------------------------------|
G|--11----------------------------------------------------------------|
D|-----9--9---------6-----9-------------------------------------------|
A|-----------7------6-x4--9-x4----------------------------------------|
e|--------------------------------------------------------------------|
[ Tab from: http://www.guitartabs.cc/tabs/b/brand_new/jude_law_and_a_semester_abroad_acoustic_tab.html ]
e|--------------------------------------------------------------------|
B|--------------------------------------------------------------------|
G|---66----9-8----22--6-4-4-------------------------------------------|
D|---66-------9---22--------------------------------------------------|
A|---44-----------00--------------------------------------------------|
e|--------------------------------------------------------------------|

And for every time you fed me the line, "you mean so much to me...".

e|--------------------------------------------------------------------|
B|--------------------------------------------------------------------|
G|--8-----9-----------------------------------------------------------|
D|--xx8--xx4--------------------------------------------------------|
A|--6-----7-----------------------------------------------------------|
e|--------------------------------------------------------------------|

Chorus- Tell all the English boys you meet...	
e|----0------0--------------------------------------------------------|
B|----0------0--------------------------------------------------------|
G|----9------8------6------4------------------------------------------|
D|----9-x2---9-x2---6-x7---4-x7----------X1---------------------------|
A|----7------6------4------2------------------------------------------|
e|--------------------------------------------------------------------|

e|--------------------------------------------------------------------|
B|--------------------------------------------------------------------|
G|--9-9-8--------9-9-8--------9-9-8-------11-11--9-9-8-8------11-9-8-9|
D|-------9-9-6--------9-9-11---------9-9-6---------------9-9-11-------|
A|--------------------------------------------------------------------|
E|--------------------------------------------------------------------|






e|--------------------------------------------------------------------|
B|--------------------------------------------------------------------|
G|--11----------------------------------------------------------------|
D|-----9--9---------6-----9-------------------------------------------|
A|-----------7------6-x4--9-x4----------------------------------------|
e|--------------------------------------------------------------------|

e|--------------------------------------------------------------------|
B|--------------------------------------------------------------------|
G|---66----9-8----22--6-4-4-------------------------------------------|
D|---66-------9---22--------------------------------------------------|
A|---44-----------00--------------------------------------------------|
e|--------------------------------------------------------------------|

if you ever said you missed..

e|--------------------------------------------------------------------|
B|--------------------------------------------------------------------|
G|--8-----9-----------------------------------------------------------|
D|--xx8--xx4--------------------------------------------------------|
A|--6-----7-----------------------------------------------------------|
e|--------------------------------------------------------------------|

Chorus- Tell all the English boys you meet...	
e|----0------0--------------------------------------------------------|
B|----0------0--------------------------------------------------------|
G|----9------8------6------4------------------------------------------|
D|----9-x2---9-x2---6-x7---4-x7----------X1---------------------------|
A|----7------6------4------2------------------------------------------|
e|--------------------------------------------------------------------|

e|--------------------------------------------------------------------|
B|--------------------------------------------------------------------|
G|--9-9-8--------9-9-8--------9-9-8-------11-11--9-9-8-8------11-9-8-9|
D|-------9-9-6--------9-9-11---------9-9-6---------------9-9-11-------|
A|--------------------------------------------------------------------|
E|--------------------------------------------------------------------|

  Bridge- Never gonna get it right
e|---0-------0--------------------------------------------------------|
B|---0-------0--------------------------------------------------------|
G|-8-9-8---8-9-8----8----11----8----11----8----11----8----11----------|
D|9-----9-9-----9-99-9-99--9-99-9-99--9-99-9-99--9-99-9-99--9---------|
A|--------------------------------------------------------------------|
E|--------------------------------------------------------------------|

e|----0------0--------------------------------------------------------|
B|----0------0--------------------------------------------------------|
G|----9------8-----2----6------4--------------------------------------|
D|----9-x8---9-x8--2-x8-6-x4---4x4-----------------------------------|
A|----7------6-----0----4------2--------------------------------------|
E|--------------------------------------------------------------------|
Comments