Brand New - I Will Play My Game Beneath The Spin Light Chords & Tabs

 

I Will Play My Game Beneath The Spin Light Chords & Tabs

Brand New Chords & Tabs

Version: 2 Type: Tab 0 ratings
1 star 2 stars 3 stars 4 stars 5 stars
comments

I Will Play My Game Beneath The Spin Light Tab

   
OK here goes... I was amazed when I looked at the "Brand New" page only to find
that the only version of my favoite Brand New song was wrong... so here is what
(to my knowledge) is correct. I am just gonna make it basic cause I don't have a
lot of time

Tuning: douwn 1/2 a step

Verse:
       Am   E7   C   F*  G7
eb:-----0----0---0---0----1-----------
Bb:-----1----0---1---1----0-------
Gb:-----2----1---0---2----0----------
Db:-----2----0---2---3----0----------
Ab:-----0----2---3---3----2-----------
Eb:----------0---0---0----3-----------
[ Tab from: http://www.guitartabs.cc/tabs/b/brand_new/i_will_play_my_game_beneath_the_spin_light_tab_ver_2.html ]
Chorus:  I am not putting the # of strums but you can figure it out by listening to the song
eb:--------------|      
Bb:--------------|
Gb:-----5--2-----|
Db:-----5--2--5--|
Ab:-----3--0--5--|
Eb:-----------3--|

When it breaks back into the verses, it does this:
 Mostly all muted
eb:-------------------|   4X
Bb:------1-0----------|
Gb:------2-0-----1-0--|
Db:------2-0-----0-0--|
Ab:--0-0---------2-0--|
Eb:----------0-0------|
       
       C
eb:----0------|      
Bb:----1------|
Gb:----0------|
Db:----2------|
Ab:----3------|
Eb:----0------|

That is all the basics, I you have any questions or comments, email me at swillson585@hotmail.com
Comments