Brand New - Flying At Tree Level Chords & Tabs

 

Flying At Tree Level Chords & Tabs

Brand New Chords & Tabs

Version: 2 Type: Tab 0 ratings
1 star 2 stars 3 stars 4 stars 5 stars
comments

Flying At Tree Level Tab

this is my first tab. srry if it is not good i just took guitar part 2 from another tab
and pu the whole song in order so u just have to play the whole way though with out
scrolling all over the page. i tried to write the time for each part as best i could.
THIS IS ONLY GUITAR PART 2

* palm mute
\ slide up
/ slide down
^ bend up

verse (x8) (00:01-00:46)
|--------------------------------------------------------|
|--------------------------------------------------------|
|--------------------------------------------------------|
|--7--7---7-\----5---5---5-/--10-10--10-\--1--1--1-\-----|
|--7--7---7-\----5---5---5-/--10-10--10-\--1--1--1-\-----|
|--5--5---5-\----3---3---3-/---8--8---8-\--3--3--3-\-----|
   *  *          *   *         *  *        *  *
chorus:(x2) (first time 00:50) (second time 01:01)

|----------------------------------------|
|----------------------------------------|
|----------5---7--/-9--------9--7--5-----|
|--5---7---------------------------------|
|----------------------------------------|
|----------------------------------------|


verse (x8)(01:10-01:53)
|--------------------------------------------------------|
|--------------------------------------------------------|
|--------------------------------------------------------|
|--7--7---7-\----5---5---5-/--10-10--10-\--1--1--1-\-----|
|--7--7---7-\----5---5---5-/--10-10--10-\--1--1--1-\-----|
|--5--5---5-\----3---3---3-/---8--8---8-\--3--3--3-\-----|
   *  *          *   *         *  *        *  *
chorus:(x2) (First time 01:58) (second time 02:03)

|----------------------------------------|
|----------------------------------------|
|----------5---7--/-9--------9--7--5-----|
|--5---7---------------------------------|
|----------------------------------------|
|----------------------------------------|

Intrulude (02:17-02:55

|----------------------------------------------------|
|--------12-13^-12---12-13^-12-----------------------|
|-9---9------------9-----------------9---9-----------|
|---9----------------------------------9---9---------|
|----------------------------------------------------|
|----------------------------------------------------|
[ Tab from: http://www.guitartabs.cc/tabs/b/brand_new/flying_at_tree_level_tab_ver_2.html ]
|-----12-----12-13^-12-----12-13^-12---:----10----8-------|
|-10-----10---------------10-----------:--8-----6---------|
|--------------------------------------:------------------|
|--------------------------------------:------------------|
|--------------------------------------:------------------|
|--------------------------------------:------------------|

*On the 4th time through play the section labeled intrulude part 2 instead of the part
after the
:|----10---8----|
:|-8-----6------|

Intrulude part 2 (02:55-03:03)
|----12----12----12----12----10----10----10----10------|
|-10----10----10----10----8----8----8----8----8--------|
|------------------------------------------------------|
|------------------------------------------------------|
|------------------------------------------------------|
|------------------------------------------------------|

|----5----5----5----5----5----5----5----5------------------|
|--7----7----7----7----7----7----7----7--------------------|
|----------------------------------------------------------|
|----------------------------------------------------------|
|----------------------------------------------------------|
|----------------------------------------------------------|

chorus:(x1)(03:08)

|----------------------------------------|
|----------------------------------------|
|----------5---7--/-9--------9--7--5-----|
|--5---7---------------------------------|
|----------------------------------------|
|----------------------------------------|

verse (x8)(no palm mute)(03:14-03:4)
|--------------------------------------------------------|
|--------------------------------------------------------|
|--------------------------------------------------------|
|--7--7---7-\----5---5---5-/--10-10--10-\--1--1--1-\-----|
|--7--7---7-\----5---5---5-/--10-10--10-\--1--1--1-\-----|
|--5--5---5-\----3---3---3-/---8--8---8-\--3--3--3-\-----|

Outro (03:47-03:51)
|-----------------------------|
|-----------------------------|
|-----------------------------|
|-222222222-------------------|
|-222222222-------------------|
|-000000000-------------------|

if u want the guitar 1 part written like this e-mail me or if it is wrong email me at
lil_magicman7@hotmail.com thanx
Comments