Branch Michelle - Everywhere Chords & Tabs

 

Everywhere Chords & Tabs

Branch Michelle Chords & Tabs

Version: 3 Type: Tab 0 ratings
1 star 2 stars 3 stars 4 stars 5 stars
comments

Everywhere Tab

   
*Capo on first fret
        Am                C                         Gmodal      
e-----------------------------------------------------------------------------------------------------------------------------------------------------
B--------1--------------------1-------------------3--------------3------------------------------------------------------------------------------------
G----------2---2----------------0---0--------------0---0----------0---0-------------------------------------------------------------------------------
D-----2------2------------2-------2-----------0------0-------0------0---------------------------------------------------------------------------------
A--0-----------------2h3------------------------------------------------------------------------------------------------------------------------------
E-------------------------------------------3---------------3-----------------------------------------------------------------------------------------
[ Tab from: http://www.guitartabs.cc/tabs/b/branch_michelle/everywhere_tab_ver_3.html ]
Do this 4 times then go into
                    F                              Gmodal                            Am              F  
e-----------------------------------------------------------------------------------------------------------------------------------------------------
B--------1-----------------1-------------------3---------------3--------------------1-------------------1--------------------3------------------------
G----------2-----2-----------2---2--------------0---0----------0---0-------------------2-----2------------2----2---------------0-----0----------------
D-----3-------3--------3-------3-----------0------0-------0------0---------------2--------2---------3-------3------------0--------0-------------------
A------------------------------------------------------------------------------0----------------------------------------------------------------------
E--1-----------------1--------------------3---------------3---------------------------------------1------------------3-------------------------3------

Then strumming, i don't know if all amps have this, i have a classic blues amp, but if yours does, i find that
when you put reverb on high, bass in the middle, and treble around 7, it sounds pretty close to it.
(If you have the capo on the first fret, use common sense and slide these chords up a fret)

E----5------5------x---------x-------x-------x-------x-------3------3-------x-------3-------3---------------------------------------------------
B----5------5------x---------5-------x-------5-------x-------3------3-------x-------3-------3---------------------------------------------------
G--- 5------5------x---------5-------x-------5-------x-------4------4-------x-------4-------4---------------------------------------------------
D----7------7------x---------5-------x-------5-------x-------5------5-------x-------5-------5---------------------------------------------------
A----7------7------x---------3-------x-------3-------x-------5------5-------x-------5-------5---------------------------------------------------
E----5------5------x---------x-------x-------x-------x-------3------3-------x-------3-------3---------------------------------------------------

This is pretty much the whole song, there's a little bit more, but i'm getting tired, so for now i'm done.
Comments