Branch Michelle - Everywhere Chords & Tabs

 

Everywhere Chords & Tabs

Branch Michelle Chords & Tabs

Version: 1 Type: Tab 0 ratings
1 star 2 stars 3 stars 4 stars 5 stars
comments

Everywhere Tab

Intro/Pre-Verse:
e|--------------------------------------------------------------|
B|-------2------------2-------------4------------4--------------|
G|---------1------------1---------------------------------------|
D|----1-----------1--------------------6------------6-----------|
A|--3--------3--3---------3------6-------6-----6------6---------|
E|-----------------------------4------------4-------------------|

Verse/Chorus:
e|--------------------------------------------------------------|
B|--------------------------------------------------------------|
G|-33-x-x-66-x-x------------------------------------------------|
D|-33-x-x-66-x-x-66-x-x-66-x-66---------------------------------|
A|-11-x-x-44-x-x-66-x-x-66-x-66---------------------------------|
E|---------------44-x-x-44-x-44---------------------------------|
[ Tab from: http://www.guitartabs.cc/tabs/b/branch_michelle/everywhere_tab.html ]
Bridge(Slide Part):
e|-5/3/5/7/10/13/16/13------------------------------------------|
B|-3/1/3/5/8-/11/14/11------------------------------------------|
G|--------------------------------------------------------------|
A|--------------------------------------------------------------|
D|--------------------------------------------------------------|
E|--------------------------------------------------------------|

Post-Chorus:
e|--------------------------------------------------------------|
B|--------------------------------------------------------------|
G|--------------------------------------------------------------|
A|--------------------------------------------------------------|
D|--------55-5--------------------------------------------------|
E|--------55-5--------------------------------------------------|
         pm pm pm
Comments