Branch Michelle - All You Wanted Chords & Tabs

 

All You Wanted Chords & Tabs

Branch Michelle Chords & Tabs

Version: 1 Type: Tab 0 ratings
1 star 2 stars 3 stars 4 stars 5 stars
comments

All You Wanted Tab

#----------------------------------PLEASE NOTE--------------------------------#
#This file is the author's own work and represents their interpretation of the#
#song. You may only use this file for private study, scholarship, or research.#
#-----------------------------------------------------------------------------#
#-- File created with Instab - http://www.pconline.com/~smcarey/instab.html --#
#-----------------------------------------------------------------------------#

Author/Artist: Michelle Branch
Title: All You Wanted
Album: Spirit Room
Transcribed by: Kevin Faggella
Email: Yanksalltheway03@yahoo.com

This song took a while but I think I got it right

Do the first part 10 times and the second 4 times


 The slashes are strums 

There is a capo on the first fret

The x after the numbers means times

-----3-------3-------------3---|----------------------------------------------
-------3------3----3---------3-|----------------------------------------------
---0-------0------0--0---------|-----10x--------------------------------------
-----------------------0-------|----------------------------------------------
-3-------2------3--------3-----|----------------------------------------------
-------------------------------|----------------------------------------------
                                                                              

---------------------------|--------------------------------------------------
---------------------------|--------------------------------------------------
-----///---///---///---///-|-4x-----------------------------------------------
---------2-----------------|--------------------------------------------------
-2-------0-----5-----7-----|--------------------------------------------------
-0-------------3-----5-----|--------------------------------------------------
                                                                              

--------------------|---------------------------------------------------------
-3-5-7-/////-9-7-5-3|-1x------------------------------------------------------
--------------------|---------------------------------------------------------
--------------------|---------------------------------------------------------
--------------------|---------------------------------------------------------
--------------------|---------------------------------------------------------
                                                                              

-----3-------3---------------3---|--------------------------------------------
-------3-------3-----3---------3-|-4x-----------------------------------------
---0-------0-------0---0---------|--------------------------------------------
-------------------------0-------|--------------------------------------------
-3-------2-------3---------3-----|--------------------------------------------
---------------------------------|--------------------------------------------
                                                                              
[ Tab from: http://www.guitartabs.cc/tabs/b/branch_michelle/all_you_wanted_tab.html ]
------------------------|-----------------------------------------------------
------------------------|-----------------------------------------------------
---///---///---///---///|-4x--------------------------------------------------
-------2----------------|-----------------------------------------------------
-2-----0-----5-----7----|-----------------------------------------------------
-0-----------3-----5----|-----------------------------------------------------
                                                                              

-------------------|----------------------------------------------------------
-3-///-5-///-7-///-|-4x-------------------------------------------------------
-------------------|----------------------------------------------------------
-------------------|----------------------------------------------------------
-------------------|----------------------------------------------------------
-------------------|----------------------------------------------------------
                                                                              

------------------------|-----------------------------------------------------
------------------------|-----------------------------------------------------
---///---///---///---///|-4x--------------------------------------------------
-------2----------------|-----------------------------------------------------
-2-----0-----5-----7----|-----------------------------------------------------
-0-----------3-----5----|-----------------------------------------------------
                                                                              

-------------------------------|----------------------------------------------
-3-///-5-///--7-///-5-///-3-///|-2x-------------------------------------------
-------------------------------|----------------------------------------------
-------------------------------|----------------------------------------------
-------------------------------|----------------------------------------------
-------------------------------|----------------------------------------------
                                                                              

------------------------|-----------------------------------------------------
------------------------|-----------------------------------------------------
---///---///---///---///|-4x--------------------------------------------------
-------2----------------|-----------------------------------------------------
-2-----0-----5-----7----|-----------------------------------------------------
-0-----------3-----5----|-----------------------------------------------------
                                                                              

-----3-------3---------------3--|---------------------------------------------
-------3-------3-----3---------3|-2x------------------------------------------
---0-------0-------0---0--------|---------------------------------------------
-------------------------0------|---------------------------------------------
-3-------2-------3---------3----|---------------------------------------------
--------------------------------|---------------------------------------------
                                                                              

Comments