Bramhall Doyle - Send Some Love Chords & Tabs

 

Send Some Love Chords & Tabs

Bramhall Doyle Chords & Tabs

Version: 1 Type: Tab 0 ratings
1 star 2 stars 3 stars 4 stars 5 stars
comments

Send Some Love Tab

   
Send Some Love - Doyle Bramhall II & Smokestack
Here is the rhythym guitar track to the this great
Modern soul track. 

Tabbed by Trent Walton
swampguitar2000@yahoo.com

H- Hammer on
P- Pull off
/- slide up
b- bend
r- double bend
~- vibrato
                                                                         G      
E||------------0----------------------------------0----------------------3-----------
B||------------1-------------------------------1-------------------------3-----------
G||-------2------------------0------------2------------------------------0-----------
D||--3------------3--0h-2-------2----3-----------------0h-2----0---------0-----------
A||-----------------------------------------------------------------3----2-----------
E||----------------------------------------------------------------------3-----------


E||------3------3------3----3h---1----0-------------0------------0---------------- 
B||------3------3------3----3h---1----1-------------1------------1---------------- 
G||------0------0------0--------------2-------------2------------2---------------- 
D||------0------0------0--------------3-------------3------------3---------------- 
A||------2------2------2--------------3-------------3------------3---------------- 
E||------3------3------3--------------1-------------1------------1---------------- 
You walked away so easily             You washed your hands of it all

E||----0----3------0------0------0-
B||----1----1------1------1------1-
G||----0----0------0------0------0-
D||----0h---2------2------2------2-
A||----3----3------3------3------3-
E||--------------------------------
	You didn't even notice...

E||------------0----------------------------------0----------------------3------------
B||------------1-------------------------------1-------------------------3------------
G||-------2------------------0------------2------------------------------0------------
D||--3------------3--0h-2-------2----3-----------------0h-2----0---------0------------
A||-----------------------------------------------------------------3----2------------
E||----------------------------------------------------------------------3------------
That I followed you in vain       Im writhing hear in pain

E||------3------3------3----3h---1----0-------------0------------0--------------------
B||------3------3------3----3h---1----1-------------1------------1--------------------
G||------0------0------0--------------2-------------2------------2--------------------
D||------0------0------0--------------3-------------3------------3--------------------
A||------2------2------2--------------3-------------3------------3--------------------
E||------3------3------3--------------1-------------1------------1--------------------
On and On these drifting days		    Are killing me inside

E||----0----3------0------0------0-
B||----1----1------1------1------1-
G||----0----0------0------0------0-
D||----0h---2------2------2------2-
A||----3----3------3------3------3-
E||--------------------------------
You didn't even notice baby...

E||------------0----------------------------------0-----------------------------------
B||------------1-------------------------------1--------------------------------------
G||-------2------------------0------------2-------------------------------------------
D||--3------------3--0h-2-------2----3-----------------0h-2----0----------------------
A||-----------------------------------------------------------------3-----------------
E||-----------------------------------------------------------------------------------
..Your heart is so damn small   Your blood is turning cold

E||--0-----0--------------0----0----0-------------------0--0--------------------------
B||--1-----1--------------0----0----0----0--------------1--1--------------------------
G||--0-----0----0----0----1----1----1---------1---------2--2--------------------------
D||--2-----2----4----5----0h---2----2--------------2----2--2--------------------------
A||--3-----3----5----6----2----2----2-------------------0--0--------------0---0-------
E||-----------------------0----0----0-------------------------------0h-3---------3--0-
	Please             You better send     some      love

E||--0-----0--------------0----0----0-------------------0--0--------------------------
B||--1-----1--------------0----0----0----0--------------1--1--------------------------
G||--0-----0----0----0----1----1----1---------1---------2--2--------------------------
D||--2-----2----4----5----0h---2----2--------------2----2--2--------------------------
A||--3-----3----5----6----2----2----2-------------------0--0--------------0---0-------
E||-----------------------0----0----0-------------------------------0h-3---------3--0-
	Please            You better send        it       fast                 right aa..

E||--------------------------------5------------------------2----0--------------
B||-----------------6-------------------6-------------------3----0--------------
G||-------7--------------7-------------------7---------4----4----1---------1----
D||------------7--------------7-----------------------------4----2----2---------
A||--5--------------------------------------------2--------------2--------------
E||--------------------------------------------------------------0--------------
     A w A y

E||--7-----7-------------------------
B||--7-----7-------------------------
G||--7h-9h-7--7-----7----------------
D||-----------7h-9h-7--7-----7-------
A||--------------------7h-9h-7-------
E||-----------------------------7----

E||------3------3------3----3h---1----0-------------0------------0---------------- 
B||------3------3------3----3h---1----1-------------1------------1---------------- 
G||------0------0------0--------------2-------------2------------2---------------- 
D||------0------0------0--------------3-------------3------------3---------------- 
A||------2------2------2--------------3-------------3------------3---------------- 
E||------3------3------3--------------1-------------1------------1---------------- 
Everything is getting clearer                         I  can feel it close

E||----0----3------0------0------0-
B||----1----1------1------1------1-
G||----0----0------0------0------0-
D||----0h---2------2------2------2-
A||----3----3------3------3------3-
E||--------------------------------
           You showed me how to live right baby
[ Tab from: http://www.guitartabs.cc/tabs/b/bramhall_doyle/send_some_love_tab.html ]
E||------3------3------3----3h---1----0-------------0------------0---------------- 
B||------3------3------3----3h---1----1-------------1------------1---------------- 
G||------0------0------0--------------2-------------2------------2---------------- 
D||------0------0------0--------------3-------------3------------3---------------- 
A||------2------2------2--------------3-------------3------------3---------------- 
E||------3------3------3--------------1-------------1------------1---------------- 
       Hallelujah baby...            I finally found the one

E||------------0----------------------------------0-----------------------------------
B||------------1-------------------------------1--------------------------------------
G||-------2------------------0------------2-------------------------------------------
D||--3------------3--0h-2-------2----3-----------------0h-2----0----------------------
A||-----------------------------------------------------------------3-----------------
E||-----------------------------------------------------------------------------------
..Your heart is so damn small   Your blood is turning cold

E||--0-----0--------------0----0----0-------------------0--0--------------------------
B||--1-----1--------------0----0----0----0--------------1--1--------------------------
G||--0-----0----0----0----1----1----1---------1---------2--2--------------------------
D||--2-----2----4----5----0h---2----2--------------2----2--2--------------------------
A||--3-----3----5----6----2----2----2-------------------0--0--------------0---0-------
E||-----------------------0----0----0-------------------------------0h-3---------3--0-
	Please             You better send     some      love

E||--0-----0--------------0----0----0-------------------0--0--------------------------
B||--1-----1--------------0----0----0----0--------------1--1--------------------------
G||--0-----0----0----0----1----1----1---------1---------2--2--------------------------
D||--2-----2----4----5----0h---2----2--------------2----2--2--------------------------
A||--3-----3----5----6----2----2----2-------------------0--0--------------0---0-------
E||-----------------------0----0----0-------------------------------0h-3---------3--0-
	Please            You better send        it       fast                 right aa..

E||--------------------------------5------------------
B||-----------------6-------------------6-------------
G||-------7--------------7-------------------7--------
D||------------7--------------7-----------------------
A||--5--------------------------------------------2---
E||---------------------------------------------------
     A w A y

E||--------------------------------7--------------||
B||-----------------8-------------------8---------||
G||-------9--------------9-------------------9----||
D||------------9--------------9-------------------||
A||--7--------------------------------------------||
E||-----------------------------------------------||
   Right   A  w  a  y

You have the right to know, Anything about you girl,
I gotta have you, p  l  e  a  s  e...

(SOLO)

E||----------------------------------------------||
B||----------------------------------------------||
G||--14b-------14r---12----14----12h-14----------||
D||----------------------------------------14----||
A||----------------------------------------------||
E||----------------------------------------------||

E||----------------------------------------------------||
B||------------------------------------------14b-------||
G||--14b-------14r---12----14----14----12--------------||
D||----------------------------------------------------||
A||----------------------------------------------------||
E||----------------------------------------------------||

E||----------------------------------------------||
B||----------------------------------------------||
G||--14b-------14r---12----14----12h-14----------||
D||----------------------------------------14----||
A||----------------------------------------------||
E||----------------------------------------------||

E||------------------10--------------10----------------------------------||
B||------------10----------13b-------------13----10----------------------||
G||--10h-12--------------------------------------------12----10----------||
D||----------------------------------------------------------------12----||
A||----------------------------------------------------------------------||
E||----------------------------------------------------------------------||

E||----------------12------------12------------15b---------12----------------------
B||------------12------15b-------------15--12------------------15--12--------------
G||--12h-14------------------------------------------------------------14--12~-----
D||----------------------------------------------------------------------------14--
A||--------------------------------------------------------------------------------
E||--------------------------------------------------------------------------------

(SOLO END)

E||--0-----0--------------0----0----0-------------------0--0--------------------------
B||--1-----1--------------0----0----0----0--------------1--1--------------------------
G||--0-----0----0----0----1----1----1---------1---------2--2--------------------------
D||--2-----2----4----5----0h---2----2--------------2----2--2--------------------------
A||--3-----3----5----6----2----2----2-------------------0--0--------------0---0-------
E||-----------------------0----0----0-------------------------------0h-3---------3--0-
	Please             You better send     some      love

E||--0-----0--------------0----0----0-------------------0--0--------------------------
B||--1-----1--------------0----0----0----0--------------1--1--------------------------
G||--0-----0----0----0----1----1----1---------1---------2--2--------------------------
D||--2-----2----4----5----0h---2----2--------------2----2--2--------------------------
A||--3-----3----5----6----2----2----2-------------------0--0--------------0---0-------
E||-----------------------0----0----0-------------------------------0h-3---------3--0-
	Please            You better send        it       fast                 right aa..

E||--------------------------------5------------------
B||-----------------6-------------------6-------------
G||-------7--------------7-------------------7--------
D||------------7--------------7-----------------------
A||--5--------------------------------------------2---
E||---------------------------------------------------
     A w A y

E||--------------------------------7--------------||
B||-----------------8-------------------8---------||
G||-------9--------------9-------------------9----||
D||------------9--------------9-------------------||
A||--7--------------------------------------------||
E||-----------------------------------------------||
Comments