Bramhall Doyle - Green Light Girl Chords & Tabs

 

Green Light Girl Chords & Tabs

Bramhall Doyle Chords & Tabs

Version: 1 Type: Tab 0 ratings
1 star 2 stars 3 stars 4 stars 5 stars
comments

Green Light Girl Tab

"Green Light Girl" - Doyle BRamhall II & Smokestack
This is the basic guitar track to "Green Light Girl"
minus some guitar fills from the chorus. There is also
a second guitar that doubles the main part but in a 
higher register (played in B on the 7th fret as oposed
to the lower guitar part which is in G on the 3rd). 
This second guitar part can be seen in the last few
bars of the tab.

Tabbed by Trent Walton
swampguitar2000@yahoo.com

Tuned #440

Track 1
/ Slide up
\ Slide Down
~ Vibrato
r Up-Down bend 1/2 step
b up-down bend 1 step


E||----------------------------------------------------------------------------------
B||----------------------------------------------------------------------------------
G||--5r---3----------------------------------------5r---3----------------------------
D||----------3----5~-------5r---3--------------------------3----5--------5r---3------
A||----------------------------------3----5~---------------------------------------3~
E||----------------------------------------------------------------------------------


E||----------------------------------------------------------------------------------
B||----------------------------------------------------------------------------------
G||--5r---3----------------------------------------5r---3----------------------------
D||----------3----5~-------5r---3--------------------------3----5--------5r---3------
A||----------------------------------3----5~---------------------------------------3~
E||----------------------------------------------------------------------------------


E||----------------------------------------------------------------------------------
B||----------------------------------------------------------------------------------
G||-----------10--10--10--10--10--10--10--------10------------12---------------------
D||-----------12--12--12--12--12--12--12--------10------------12---------------------
A||-----------12--12--12--12--12--12--12/---12------12/---14--14\---12---------------
E||--2/-------10--10--10--10--10--10--10---------------------------------------------


E||----------------------------------------------------------------------------------
B||----------------------------------------------------------------------------------
G||-----------10--10--10--10--10--10--10--------10------------12---------------------
D||-----------12--12--12--12--12--12--12--------10------------12---------------------
A||-----------12--12--12--12--12--12--12/---12------12/---14--14\---12---------------
E||-----------10--10--10--10--10--10--10---------------------------------------------


E||----------------------------------------------------------------------------------
B||----------------------------------------------------------------------------------
G||--10--10--10--10--10--10--10--10--10--10--10--10--10--10--10--10--10--10--10------
D||--12--12--12--12--12--12--12--12--12--12--12--12--12--12--12--12--12--12--12------
A||--12--12--12--12--12--12--12--12--12--12--12--12--12--12--12--12--12--12--12------
E||--10--10--10--10--10--10--10--10--10--10--10--10--10--10--10--10--10--10--10------
	Pretty thing on her feet... Shes gonna' leave em' sorry

E||----------------------------------------------------------------------------------
B||----------------------------------------------------------------------------------
G||--10--10--10--10--10--10--10--10--10--10--10--10--10--10--10--10--10--10--10------
D||--12--12--12--12--12--12--12--12--12--12--12--12--12--12--12--12--12--12--12------
A||--12--12--12--12--12--12--12--12--12--12--12--12--12--12--12--12--12--12--12------
E||--10--10--10--10--10--10--10--10--10--10--10--10--10--10--10--10--10--10--10------
	Shes a sweet and sour miss... Too hot to handle, now

E||------0-------0---------------0--0/---0----0--0----0----0--0----------------------
B||------1------------1----------1--1/---3----3--3----3----3--3----------------------
G||------2---------------2-------2--2/---4----4--4----4----4--4----------------------
D||------3----3-------------3----3--3/---5----5--5----5----5--5----------------------
A||------3------------------3----3--3/---5----5--5----5----5--5----------------------
E||------1-----------------------1--1/---3----3--3----3----3--3----------------------
	Spend all night....		In a red light town, looking for a...

E||----------------------------------------------------------------------------------
B||--12------------------------------------------------------------------------------
G||--12----10----10--10--10--10--10--10--10--10--10--10--10--------------------------
D||--12----10----12--12--12--12--12--12--12--12--12--12--12--------------------------
A||--------------12--12--12--12--12--12--12--12--12--12--12--------------------------
E||--10----------10--10--10--10--10--10--10--10--10--10--10--------------------------
	Green Light

E||----------------------------------------------------------------------------------
B||--12------------------------------------------------------------------------------
G||--12----10----10--10--10--10--10--10--10--10--10--10--10--------------------------
D||--12----10----12--12--12--12--12--12--12--12--12--12--12--------------------------
A||--------------12--12--12--12--12--12--12--12--12--12--12--------------------------
E||--10----------10--10--10--10--10--10--10--10--10--10--10--------------------------
	Green Light Girl                       Looking for a...

E||----------------------------------------------------------------------------------
B||--12------------------------------------------------------------------------------
G||--12----10----10--10--10--10--10--10--10--10--10--10--10--------------------------
D||--12----10----12--12--12--12--12--12--12--12--12--12--12--------------------------
A||--------------12--12--12--12--12--12--12--12--12--12--12--------------------------
E||--10----------10--10--10--10--10--10--10--10--10--10--10--------------------------
	Green Light

E||----------------------------------------------------------------------------------
B||--12------------------------------------------------------------------------------
G||--12----10----10--10--10--10--10--10--10--10--10--10--10--------------------------
D||--12----10----12--12--12--12--12--12--12--12--12--12--12--------------------------
A||--------------12--12--12--12--12--12--12--12--12--12--12--------------------------
E||--10----------10--10--10--10--10--10--10--10--10--10--10--------------------------
	Green Light Girl

E||----------------------------------------------------------------------------------
B||----------------------------------------------------------------------------------
G||--5r---3----------------------------------------5r---3----------------------------
D||----------3----5~-------5r---3--------------------------3----5--------5r---3------
A||----------------------------------3----5~---------------------------------------3~
E||----------------------------------------------------------------------------------


E||----------------------------------------------------------------------------------
B||----------------------------------------------------------------------------------
G||--5r---3----------------------------------------5r---3----------------------------
D||----------3----5~-------5r---3--------------------------3----5--------5r---3------
A||----------------------------------3----5~---------------------------------------3~
E||----------------------------------------------------------------------------------


E||----------------------------------------------------------------------------------
B||----------------------------------------------------------------------------------
G||-----------10--10--10--10--10--10--10--------10------------12---------------------
D||-----------12--12--12--12--12--12--12--------10------------12---------------------
A||-----------12--12--12--12--12--12--12/---12------12/---14--14\---12---------------
E||--2/-------10--10--10--10--10--10--10---------------------------------------------


E||----------------------------------------------------------------------------------
B||----------------------------------------------------------------------------------
G||-----------10--10--10--10--10--10--10--------10------------12---------------------
D||-----------12--12--12--12--12--12--12--------10------------12---------------------
A||-----------12--12--12--12--12--12--12/---12------12/---14--14\---12---------------
E||-----------10--10--10--10--10--10--10---------------------------------------------

[ Tab from: http://www.guitartabs.cc/tabs/b/bramhall_doyle/green_light_girl_tab.html ]
E||----------------------------------------------------------------------------------
B||----------------------------------------------------------------------------------
G||--10--10--10--10--10--10--10--10--10--10--10--10--10--10--10--10--10--10--10------
D||--12--12--12--12--12--12--12--12--12--12--12--12--12--12--12--12--12--12--12------
A||--12--12--12--12--12--12--12--12--12--12--12--12--12--12--12--12--12--12--12------
E||--10--10--10--10--10--10--10--10--10--10--10--10--10--10--10--10--10--10--10------
	All the boys want you... Youre glamour and despair

E||----------------------------------------------------------------------------------
B||----------------------------------------------------------------------------------
G||--10--10--10--10--10--10--10--10--10--10--10--10--10--10--10--10--10--10--10------
D||--12--12--12--12--12--12--12--12--12--12--12--12--12--12--12--12--12--12--12------
A||--12--12--12--12--12--12--12--12--12--12--12--12--12--12--12--12--12--12--12------
E||--10--10--10--10--10--10--10--10--10--10--10--10--10--10--10--10--10--10--10------
	She smiles and rolls her eyes...   In a Rock'n'roll uprise 

E||------0-------0---------------0--0/---0----0--0----0----0--0----------------------
B||------1------------1----------1--1/---3----3--3----3----3--3----------------------
G||------2---------------2-------2--2/---4----4--4----4----4--4----------------------
D||------3----3-------------3----3--3/---5----5--5----5----5--5----------------------
A||------3------------------3----3--3/---5----5--5----5----5--5----------------------
E||------1-----------------------1--1/---3----3--3----3----3--3----------------------
	Touch if you want to             Shes the girl of the year, Talkin bout' a

E||----------------------------------------------------------------------------------
B||--12------------------------------------------------------------------------------
G||--12----10----10--10--10--10--10--10--10--10--10--10--10--------------------------
D||--12----10----12--12--12--12--12--12--12--12--12--12--12--------------------------
A||--------------12--12--12--12--12--12--12--12--12--12--12--------------------------
E||--10----------10--10--10--10--10--10--10--10--10--10--10--------------------------
	Green Light

E||----------------------------------------------------------------------------------
B||--12------------------------------------------------------------------------------
G||--12----10----10--10--10--10--10--10--10--10--10--10--10--------------------------
D||--12----10----12--12--12--12--12--12--12--12--12--12--12--------------------------
A||--------------12--12--12--12--12--12--12--12--12--12--12--------------------------
E||--10----------10--10--10--10--10--10--10--10--10--10--10--------------------------
	Green Light Girl                       I'm talkin bout the

E||----------------------------------------------------------------------------------
B||--12------------------------------------------------------------------------------
G||--12----10----10--10--10--10--10--10--10--10--10--10--10--------------------------
D||--12----10----12--12--12--12--12--12--12--12--12--12--12--------------------------
A||--------------12--12--12--12--12--12--12--12--12--12--12--------------------------
E||--10----------10--10--10--10--10--10--10--10--10--10--10--------------------------
	Green Light

E||----------------------------------------------------------------------------------
B||--12------------------------------------------------------------------------------
G||--12----10----10--10--10--10--10--10--10--10--10--10--10--------------------------
D||--12----10----12--12--12--12--12--12--12--12--12--12--12--------------------------
A||--------------12--12--12--12--12--12--12--12--12--12--12--------------------------
E||--10----------10--10--10--10--10--10--10--10--10--10--10--------------------------
	Green Light Girl 					Give it to me know

{Solo}

E||-------10-10-10-10------10-10-10-10----10------------10----------10---------------
B||-------10-10-10-10------10-10-10-10-------11-----13------13--10-------------------
G||--1/---11-11-11-11-1/---11-11-11-11-1/-------11-----------------------------------
D||----------------------------------------------------------------------------------
A||----------------------------------------------------------------------------------
E||----------------------------------------------------------------------------------

E||--------10-------------10------------13b-13b-10--------13--10----------10---------
B||------------10--10-13b-----13/---15~---------------13------------13---------------
G||--12b-----------------------------------------------------------------------------
D||----------------------------------------------------------------------------------
A||----------------------------------------------------------------------------------
E||----------------------------------------------------------------------------------

E||--15r---------------13----15----15b---15----------13----15----15b---15~-----------
B||--------15~---15----------------------------15------------------------------------
G||----------------------------------------------------------------------------------
D||----------------------------------------------------------------------------------
A||----------------------------------------------------------------------------------
E||----------------------------------------------------------------------------------

E||--13r-------10--------------------10----------------------------------------------
B||----------------13h-10--------10--------------------------------------------------
G||------------------------12------------12h-10--------------------------------------
D||------------------------------------------------12h10-----------------------------
A||---------------------------------------------------------12h-10--8----------------
E||----------------------------------------------------------------------------------

(Solo End)

E||----------------------------------------------------------------------------------
B||--12------------------------------------------------------------------------------
G||--12----10----10--10--10--10--10--10--10--10--10--10--10--------------------------
D||--12----10----12--12--12--12--12--12--12--12--12--12--12--------------------------
A||--------------12--12--12--12--12--12--12--12--12--12--12--------------------------
E||--10----------10--10--10--10--10--10--10--10--10--10--10--------------------------
	Green Light

E||----------------------------------------------------------------------------------
B||--12------------------------------------------------------------------------------
G||--12----10----10--10--10--10--10--10--10--10--10--10--10--------------------------
D||--12----10----12--12--12--12--12--12--12--12--12--12--12--------------------------
A||--------------12--12--12--12--12--12--12--12--12--12--12--------------------------
E||--10----------10--10--10--10--10--10--10--10--10--10--10--------------------------
	Green Light Girl                       Looking for a...

E||----------------------------------------------------------------------------------
B||--12------------------------------------------------------------------------------
G||--12----10----10--10--10--10--10--10--10--10--10--10--10--------------------------
D||--12----10----12--12--12--12--12--12--12--12--12--12--12--------------------------
A||--------------12--12--12--12--12--12--12--12--12--12--12--------------------------
E||--10----------10--10--10--10--10--10--10--10--10--10--10--------------------------
	Green Light

E||----------------------------------------------------------------------------------
B||--12------------------------------------------------------------------------------
G||--12----10----10--10--10--10--10--10--10--10--10--10--10--------------------------
D||--12----10----12--12--12--12--12--12--12--12--12--12--12--------------------------
A||--------------12--12--12--12--12--12--12--12--12--12--12--------------------------
E||--10----------10--10--10--10--10--10--10--10--10--10--10--------------------------
	Green Light Girl

E||----------------------------------------------------------------------------------
B||----------------------------------------------------------------------------------
G||----------------------------------------------------------------------------------
D||--9r---7------------------------------9r---7--------------------------------------
A||----------7----9~---9r---7--------------------7----9----9r---7--------------------
E||----------------------------7----9--------------------------------7---------------


E||----------------------------------------------------------------------------------
B||----------------------------------------------------------------------------------
G||----------------------------------------------------------------------------------
D||--11r---9---------------------------------11r---9---------------------------------
A||-----------9----11~---11r---9----------------------9----11----11r---9-------------
E||-------------------------------9----11-----------------------------------9-8-7----












Comments