Braddigan - Pura Vida Chords & Tabs

 

Pura Vida Chords & Tabs

Braddigan Chords & Tabs

Version: 2 Type: Tab 0 ratings
1 star 2 stars 3 stars 4 stars 5 stars
comments

Pura Vida Tab

   
"Pura Vida" by Braddigan

Verses: (well we're waiting again...)

    A      (.this is fast.)
E---5--5-----5h7---9---7-5----
B---5--5----------------------
G---6--6---6--/7-7/9-7---6----
D---7--7----------------------
A---7--7----------------------
E---5--5----------------------



    D  E
E---5--7-----5h7---9---7-5-----|
B---7--9----------------------*|
G---7--9---6--/7-7/9-7---6-----|
D---7--9-----------------------|
A---5--7----------------------*|repeat these two
E---x--x-----------------------|for the verses



Chorus: (let the wind...)
[ Tab from: http://www.guitartabs.cc/tabs/b/braddigan/pura_vida_tab_ver_2.html ]
    A   D   G  G/F# E
E---5---5---x---x---0----|
B---5---7---x---x---0---*|
G---6---7---4---4---1----|
D---7---7---5---5---2----|
A---7---5---5---5---2---*|
E---5---x---3---2---0----| repeat


Bridge: (sometimes...)


 F#m                                                A
Sometimes you're gonna chase em down just to let em go, let em go

 F#m                                                   A
Sometimes you're gonna run, run em down just to let em go, let em go

 F#m                         Bm     E 
Sometimes it's not that you know, whoa oh


         E A D G B E
   F#m - 2 4 4 2 2 2

   A   - 5 7 7 6 5 5

   Bm  - x 2 4 4 3 2

   E   - x 7 9 9 9 7


back to verses

Thats it...great song...have fun.

-Danny Glover 2003 (dglover@wisc.edu)
Comments