Brad Paisley - Whiskey Lullaby Chords & Tabs

 

Whiskey Lullaby Chords & Tabs

Brad Paisley Chords & Tabs

Version: 1 Type: Tab 0 ratings
1 star 2 stars 3 stars 4 stars 5 stars
comments

Whiskey Lullaby Tab

-------------------------------------------------------------------------------
              whiskey lullaby - brad paisley
-------------------------------------------------------------------------------
Tabbed by:nathan eddy
Email:lilpain@sbcglobal.net

Tuning:eadgbe
[ Tab from: http://www.guitartabs.cc/tabs/b/brad_paisley/whiskey_lullaby_tab.html ]
e|-----------2-2-2-0----------------2-2-2-0---2-3----------------------------|
B|--------3----------3-2---------3----------3---3----------------------------|
G|------4----------------4-----4----------------0----------------------------|
D|--4----------------------4-------------------------------------------------|
A|---------------------------------------------------------------------------|
E|---------------------------------------------------------------------------|

that's what i got!if you have something better i'd love to hear about it!this
song is without a doubt the best country song right now!have fun!
Comments