Brad Paisley - Thats Love Chords & Tabs

 

Thats Love Chords & Tabs

Brad Paisley Chords & Tabs

Version: 1 Type: Tab 0 ratings
1 star 2 stars 3 stars 4 stars 5 stars
comments

Thats Love Tab

   
tabbed by skaterdoll1234@yahoo.com
this song is awsome and im giving the intro to the song
you need to grow out your right hand middle finger and weak finger nails to pluck the 
properly
/=slide up
\=slide down
h=hammer
p=pulloff
v=vibroto
b=bend
f=fingerpick

e------------------------------------------------------------------------|
b------------------------------------------------------------------------|
g-------------9--7-------------------------------------------------------|
d--------------------7v----------7------5h6--------0-----0--2------------|
a-----5/7-----------------7p5p4-----7-------7----2----2--------2b--0-----|
E------------------------------------------------------------------------|
[ Tab from: http://www.guitartabs.cc/tabs/b/brad_paisley/thats_love_tab.html ]
e---------------------------------0---------------------------------------|
b--0h2-2--3-----3f-2f-0f----------0-----3f---3f---2--------3--------------|
g--0h2-2--0-----0f-2f-0f--0h1-----------4f---4f---2--0--2b--------0-------|
d--0h2-2--4--4------------2---2-----------2-------2-----------2s4-------0-|
a-------------------------------------------------------------------2s4---|
E-------------------------------------------------------------------------|

e-------------------------------------------------------------------------|
b-------------------------------------------------------------------------|
g-------------------------------------------------------------------------|
d-------------------------------------------------------------------------|
a---4b---2-2--------------------------------------------------------------|
E-------------0------ 15- slide to open e --------------------------------|

this song is pretty hard to learn, i'll tab the rest later, email me if you have a problem!
Comments