Brad Paisley - Aint Nothin Like Chords & Tabs

 

Aint Nothin Like Chords & Tabs

Brad Paisley Chords & Tabs

Version: 1 Type: Tab 0 ratings
1 star 2 stars 3 stars 4 stars 5 stars
comments

Aint Nothin Like Tab

Brad paisley   aint nothin like
Tabbed by:jason
Email:jd444@cox.net
Tuning:standard

e|--------------------------------------------------------------------------|
B|---------------1--2-------------------------------------------------------|
G|----0-----0----1--2--0-------------------------------0--------------------|
D|----0h2--------------------0h2----0-----0------0h2------------------------|
A|--3------------------3--3------------3-----3------------------------------|
E|--------------------------------------------------------------------------|
[ Tab from: http://www.guitartabs.cc/tabs/b/brad_paisley/aint_nothin_like_tab.html ]
e|--------------------------------------------------------------------------|
B|---------1----1-----------------------------------------------------------|
G|--0--0h2---2--0----------0-----------0------------------------------------|
D|--------------------0h2--0------------------------------------------------|
A|-----------------3-------------0h2----------------------------------------|
E|----------------------------3---------------------------------------------|
  electric guitar
e|--------------------------------------------------------------------------|
B|--------------------------------------------------------------------------|
G|----------0--2-2-0---------------------------------0----------------------|
D|-----0h2----------------0h2----0-----0-------0h2--------------------------|
A|--3------------------3------------3------3--------------------------------|
E|--------------------------------------------------------------------------|

e|--------------------------------------------------------------------------|
B|----------1---------------------------------------------------------------|
G|--0--0h2-----2---0--------------------------------------------------------|
D|-----------------------0h2--0---------------------------------------------|
A|--------------------3--------------2--3-----------------------------------|
E|--------------------------------3-----------------------------------------|
Comments