Bracket - Talk Show Chords & Tabs

 

Talk Show Chords & Tabs

Bracket Chords & Tabs

Version: 1 Type: Bass Tab 0 ratings
1 star 2 stars 3 stars 4 stars 5 stars
comments

Talk Show Bass Tab

Talk Show - Bracket
tabbed by: ryan b

Riff A: (3 times)
A--------4444-4----------------------33-44-----00-22-44-4444--
E-0000-0--------4444-4-5555-5-5--0-0--------22----------------

Riff B: (twice)
A--4444-----------------------
E----------4444--5555--0000---

Riff C: (twice)
A--44444444-------------------------------------
E----------------44444444--55555555--00000000---
[ Tab from: http://www.guitartabs.cc/tabs/b/bracket/talk_show_btab.html ]
Riff D: (4 times)
A---------------------------
E------7----7----7---6---5--

Riff E: (3 times)
A---------------------------
E--0000--4444--5555--0000---

Riff F: (once)
A---------------------
E--0000--4444--5555---

Riff B: (once)
Riff D: (3 times)
Riff B: (twice)
Riff C: (twice)
Riff D: (4 times)
Riff E: (3 times)
Riff F: (once)

Riff G: (once)
A--4444-------------------
E----------4444--5555--0--


Comments