Boyzone - All That I Need Chords & Tabs

 

All That I Need Chords & Tabs

Boyzone Chords & Tabs

Version: 3 Type: Tab 0 ratings
1 star 2 stars 3 stars 4 stars 5 stars
comments

All That I Need Tab

Song title: All that I need
Artist : Boyzone
Tabbed by: Pritesh Acharya,Nepal

I am complete novice in tabbing songs. This is first song I've ever tabbed.
I hope it works well. this is played on acoustic guitar –standard tunning.

Intro:
E--8-8-8-7-5-------------------------------------------------------
B-----------8---8-8-10-10/12-10--\8p0----5-6-8-8--8-8-6----5/7-5---
G-------------------------------------------------------5----------
D------------------------------------------------------------------
A------------------------------------------------------------------
E------------------------------------------------------------------
[ Tab from: http://www.guitartabs.cc/tabs/b/boyzone/all_that_i_need_tab_ver_3.html ]
Interlude I
E--8-8-8p7-5-------------------------------------------------------
B-----------8---8-8-10-10/12-10--\8p0----5-6-8-8--8-8-6----5/7-5---
G-------------------------------------------------------5----------
D------------------------------------------------------------------
A------------------------------------------------------------------
E------------------------------------------------------------------

Interlude II
E—8p5--5-8-7-5\3---------------------------------------------------
B------------------------------------------------------------------
G-------------------6b8r6-7---10p7-7-6-7---------------------------
D----------------------------------------7-6-----------------------
A------------------------------------------------------------------
E------------------------------------------------------------------

If u have any comment about this tab send email
Email: priteshacharya@hotmail.com
Comments