Boyz Ii Men - On The Road Again Chords & Tabs

 

On The Road Again Chords & Tabs

Boyz Ii Men Chords & Tabs

Version: 1 Type: Chords 0 ratings
1 star 2 stars 3 stars 4 stars 5 stars
comments

On The Road Again Chords

   
##################################################################################
# This file is the author's own work and represents their interpretation of the  #
# song. You may only use this file for private study, scholarship, or research.  #
##################################################################################

Boyz II Men: Full Circle
Title: On the Road Again


INTRO: "* *" means play softly
[ Tab from: http://www.guitartabs.cc/tabs/b/boyz_ii_men/on_the_road_again_crd.html ]
E--------------------3---1-----------1-------------------
B------------1-3-4-3---3---1-*3*---------1--2/3--2/3/2---
G-0---0--2-3---------------------2-3---3-----------------
D---4----------------------------------------------------
A--------------------------------------------------------
E--------------------------------------------------------
                                          
                                            Gm  F
E--3-3--3--5-5/6-5--1-------1-------------|--3--1--
B----------------------3/4-------1--2/3---|--3--1--
G------------------------------3----------|--3--2--
D-----------------------------------------|--5--3--
A-----------------------------------------|--5--3--
E-----------------------------------------|--3--1--

Verse1:
          Gm  F    Gm



The intro is also played in the chorus, and as an outro. Just listen
to the song 2 adjust yourself. The chords played throughout the 
WHOLE song are Gm and F. You'll find the rite rhythm by listening.

That's it!! I hope y'all enjoy, and if you have any questions
write me at: youngfishbone21@aol.com
Comments