Boyz Ii Men - Girl In The Life Magazine Chords & Tabs

 

Girl In The Life Magazine Chords & Tabs

Boyz Ii Men Chords & Tabs

Version: 1 Type: Tab 0 ratings
1 star 2 stars 3 stars 4 stars 5 stars
comments

Girl In The Life Magazine Tab

   
---------
			     Girl in the life magazine-Boyz II men
-------------------------------------------------------------------------------
Tabbed by:Jeff kamungu
Email:geoffykom@yahoo.com

Tuning:Standard
  Intro:
    Am9        Am          G                F|              Am
e|--0------|---------|-------------|----------0---------|--------------------|
B|---1-----|-1-------|--0----------|-------------0------|--1-----------------|
G|----4----|---2-----|-----0-------|--2-------------2---|----2---------------|
D|-----3---|-----2---|--------0----|----3---------------|------2-------------|
A|------0--|-0-------|-------------|------3-------------|--0-----------------|
E|---------|---------|--3----------|--1-------------2---|--------------------|

     G           F|
e|----------|----------0---|--------------------------------------------------|
B|--0-------|--------0-----|--------------------------------------------------|
G|----0-----|-------2------|--------------------------------------------------|
D|------0---|-----3--------|--------------------------------------------------|
A|----------|----3---------|--------------------------------------------------|
E|--3-------|--1-----------|--------------------------------------------------|
I fell in love........
      Am                     G                  F|                  Am
e|-------------0-----|-----------------|----------0---------|----------------|
B|--0h1----------1---|----0-------0----|-------------0------|--0h1---------1-|
G|-------2-----------|-------0-------0-|--2-------------2---|-------2----2---|
D|----------2--------|---------0-------|-----3--------------|----------2-----|
A|--0----------------|-----------------|-------3------------|--0-------------|
E|-------------------|--3--------------|--1----------0--3---|----------------|

            G                     F|
e|---------------------|-------------------------|---------------------------|
B|------0-----------0--|--------------0----------|---------------------------|
G|---------0-----0-----|--2---------------2------|---------------------------|
D|------------0--------|------3---------------3--|---------------------------|
A|---------------------|----------3--------------|---------------------------|
E|--3------------------|--1----------------------|---------------------------|


      Am                     G                  F|                  Am
e|-------------0-----|-----------------|----------0---------|----------------|
B|--0h1-----------1--|----0-------0----|-------------0------|--0h1---------1-|
G|-------2-----------|-------0-------0-|--2-------------2---|-------2----2---|
D|----------2--------|---------0-------|-----3--------------|----------2-----|
A|--0----------------|-----------------|-------3------------|--0-------------|
E|-------------------|--3--------------|--1----------0--3---|----------------|

            G                     F|
e|---------------------|-------------------------|---------------------------|
B|------0-----------0--|--------------0----------|---------------------------|
G|---------0-----0-----|--2---------------2------|---------------------------|
D|------------0--------|------3---------------3--|---------------------------|
A|---------------------|----------3--------------|---------------------------|
E|--3------------------|--1----------------------|---------------------------|
I imagined that i was.....
Pre Chorus: F|                        E|                         F|
e|--------------0--------|----------------0---------|--------------0----------|
B|------------------0----|--------------------0-----|------------------0------|
G|--2-------------------2|--1---------------------1-|--2-------------------2--|
D|------0----------------|------0-------------------|------0------------------|
A|----------3------------|-----------2--------------|----------3--------------|
E|--1--------------------|--0-----------------------|--1----------------------|
                          Chorus:
      E|                      Amaj7|        F#m7|       Gmaj7|      E7|
e|----------------------|--------0---|----------0--|--------0--|----------0--|
B|----------------------|--------0---|----------0--|--------0--|----------0--|
G|--1----------1--2--4/-|--6---------|--2----------|--4--------|--1----------|
D|------0---------------|-----6------|------2------|-----4-----|------0------|
A|----------2-----------|--0---------|-------------|-----------|-------------|
E|--0----------0--------|------------|--2----------|--3--------|--0----------|
[ Tab from: http://www.guitartabs.cc/tabs/b/boyz_ii_men/girl_in_the_life_magazine_tab.html ]
         Amaj7|              Am              F|               E|
e|-----------0----------|-------------|--------------|---------0-------------|
B|-----------0----------|--1----------|--------------|---------0-------------|
G|--6-------------------|------2------|--2-----------|--1--------------------|
D|------6---------------|----------2--|------0-------|-----0-----------------|
A|--0-------------------|--0----------|----------3---|-----------------------|
E|----------------------|-------------|--1-----------|--0--------------------|

         Amaj7           F#m7         Gmaj7       E|           F|
e|-----------0------|----------0--|--------0--|----------0-|-----------------|
B|-----------0------|----------0--|--------0--|----------0-|-----------------|
G|--6---------------|--2----------|--4--------|--1---------|--2--------------|
D|------6-----------|------2------|-----4-----|------0-----|------0----------|
A|--0---------------|-------------|-----------|------------|----------3------|
E|------------------|--2----------|--3--------|--0---------|--1--------------|

      E|          Back to intro
e|-----------0-|-------------------------------------------------------------|
B|-----------0-|-------------------------------------------------------------|
G|--1----------|-------------------------------------------------------------|
D|------0------|-------------------------------------------------------------|
A|-------------|-------------------------------------------------------------|
E|--0----------|-------------------------------------------------------------|
Bridge:
All of my friends used to laugh..
      C            G(on B)       Am7           G                  F|
e|--0---------|--------------|-----------|----------------|----------0--------|
B|-----1------|--3-----------|--1--------|--0-------------|------------0------|
G|---------0--|------0-------|-----0-----|------0---------|--2-----------2----|
D|------------|----------0---|--------2--|----------0-----|-----3-------------|
A|--3---------|--2-----------|--0--------|----------------|--------3----------|
E|------------|--------------|-----------|--3-------------|--1----------------|
        C(on G)        G                 C                 G(on B)
e|----------------|---------------|--0--------------|-------------------------|
B|--1-------------|--0------------|-------1---------|--3----------------------|
G|-------0--------|------0--------|-------------0---|-------0-----------------|
D|------------2---|-----------0---|-----------------|------------0------------|
A|----------------|---------------|--3--------------|--2----------------------|
E|--3-------------|--3------------|-----------------|-------------------------|
     Am7               G
e|---------------|--------------|---------------0--------|--------------------|
B|--1------------|--0-----------|-------------------0----|--------------------|
G|-------0-------|------0-------|--2--------------------2|--1------------1-2--|
D|------------2--|----------0---|-------0----------------|-------0------------|
A|--0------------|--------------|------------3-----------|------------2-------|
E|---------------|--3-----------|--1---------------------|--0------------0----|
Back to chorus

End with intro plus Am9 chord as below
End:
e|--0-------------------------------------------------------------------------|
B|----1-----------------------------------------------------------------------|
G|------4---------------------------------------------------------------------|
D|-------3--------------------------------------------------------------------|
A|--------0-------------------------------------------------------------------|
E|----------------------------------------------------------------------------|

The second verse is played in the same way as verse 1. Try this song and my guarantee
is you will like it if you know the song especially if you understand the tab language.
please consult if you do not know how to read tabs, otherwise these may just appear to
be harp-harzardly arranged numbers in lines!

The Lyrics:
I fell in love with the girl in the picture,
That I used to keep,
Carried around in the back of my pocket,
She was always with me.
Imagine that I was a man of importance,
And she had a fancy for me.
And I used to dream she would call, crying her eyes out,
She had on obsession with me.
I was the love of her life,
And she was all mine,
The girl in the Life Magazine.

The first time we met in an aisle at the market,
She was staring at me.
I knew even then we would share something special,
It was like chemistry.
I fell in love from the moment I saw her,
So I took her straight home with me.
And that's where I'd dream she'd step right out of the picture,
And spend a whole evening with me,
And oh how she hated to go back to her picture,
The girl in the Life Magazine.

All of my friends used to laugh.
Said I was certifiably mad.
Until the day that she came and blew them away,
And asked me if I'd be her man.
It seems that she went and fell in love with my letters,
Says she's been looking for me.
So the story ends well,
We end up together,
Me and the girl in the Life Magazine. 
 ===============================================================================
Comments