Boys Night Out - Yeah No I Know Chords & Tabs

 

Yeah No I Know Chords & Tabs

Boys Night Out Chords & Tabs

Version: 3 Type: Tab 0 ratings
1 star 2 stars 3 stars 4 stars 5 stars
comments

Yeah No I Know Tab

   
tabed by paul

drop-d

e----------------------------------------------------------------------|
b----------------------------------------------------------------------|
g-----------2~---------------------------------------------------------|
d-----------------------5-4-5-4-5-----------------7--------------------|
a---2--------------------------------9---------------------------------|
E----------------------------------------12---5------------------------|

[ Tab from: http://www.guitartabs.cc/tabs/b/boys_night_out/yeah_no_i_know_tab_ver_3.html ]
e----------------------------------------------------------------------|
b----------------------------------------------------------------------|
g--------2~------------------------------------------------------------|
d------------------5-4-5-4-5------------------7------------------------|
a---2---------------------------9--------------------7--5--------------|
e-----------------------------------12----5------4h5-------------------|

any questions e-mail subsidedfailure@hotmail.com
Comments