Boys Night Out - I Got Punched In The Nose For Sticking My Face Into Other Peoples Buisness Chords & Tabs

 

I Got Punched In The Nose For Sticking My Face Into Other Peoples Buisness Chords & Tabs

Boys Night Out Chords & Tabs

Version: 1 Type: Tab 0 ratings
1 star 2 stars 3 stars 4 stars 5 stars
comments

I Got Punched In The Nose For Sticking My Face Into Other Peoples Buisness Tab

   
Verse 1
You and me, you know that we were always funny in a car crash sort of way. 
Watch me bruise and bleed for you. 
I always knew that I'd end up dead today. (Today, today)

Chorus (Screaming)
I'm going to tear down the sky and all the dull stars tonight so I 
can stay hidden and live in the black. 

Verse 2
I hate being famous for my hits 
And never for my misses. 
Bloody kisses from poison lips 
eave lovers dead in ditches. 
So, pass another round around for the kids who have nothing left to 
Lose and for those souls so old and sold out by the soles of my shoes
(By the soles of my shoes)

Chorus (Screaming)
I'm going to tear down the sky and all the dull stars tonight so I 
can stay hidden and live in the black.

Bridge:
Drag my corpse through the cities I never got to visit. 
Promise - don't let me miss it. 
Promise - don't let me miss it.
Drag my corpse through the cities I never got to visit.
Promise - don't let me miss it.
(Promise)

You and me, you know that we were always funny in a car crash sort of way. 
Watch me bruise and bleed for you. 
I always knew that I'd die (that I'd die, that I'd die)

Baby, the blood's already been spilled
And no amount of crying will wash 
The red from your guilty hands. 
Baby, the blood's already been spilled
And no amount of crying will wash 
The red from your guilty hands. 
Baby, the blood's already been spilled
And no amount of crying will wash 
The red from your guilty hands. 
But what if I/promised to hold/on long enough/to suffer?
But what if I/promised to hold/on long enough/to suffer?
But what if I/promised to hold/on long enough/to suffer?
But what if I/promised to hold/on long enough/to suffer? 









 ... = Palm mute
Cont = Continued
  h  = hammer on
  p  = pull off
  /  = slide up
    = slide down
//// = pick scratch down the string
\\\\ = pick scratch up the string
  ~  = let note ring

DROP D TUNNING

Guitar 1			
e|--------------------------------------------------------|
B|--------------------------------------------------------|
G|--------------------------------------------------------|
D|--------------------------------------------------------|
A|--------------------------------------------------------|
D|-///////////////////////-\\\\\\\\\\\\\\\\\\\\\\\\------|
                                                          |
Guitar 2                                                  | x 1
e|--------------------------------------------------------|
B|--------------------------------------------------------|
G|--------------------------------------------------------|
D|--------------------------------------------------------|
A|--------------------------------------------------------|
D|-///////////////////////-\\\\\\\\\\\\\\\\\\\\\\\\------|



Guitar 1			
e|-----------------------------------------------------------------|
B|-----------------------------------------------------------------|
G|-----------------------------------------------------------------|
D|-7777777777777777--44-4-44-444--00-00000000--22-2-2-2-44444444---|
A|-7777777777777777--44-4-44-444--00-00000000--22-2-2-2-44444444---|
D|-7777777777777777--44-4-44-444--00-00000000--22-2-2-2-44444444---|
                                                                   |
Guitar 2                                                           | x 2
e|-----------------------------------------------------------------|
B|-----------------------------------------------------------------|
G|-------66-77-66-------------------------------------6------------|
D|-77-99----------99-7-9-7-----------------------77-9---9-7-777-99-|
A|-------------------------9-999-999-7-4-444-444-------------------|
D|-----------------------------------------------------------------|




Guitar 1			
e|---------------------------------------------------------------------|
B|---------------------------------------------------------------------|
G|---------------------------------------------------------------------|
D|-7777777777777777--44-4-44-444--00-00000000--------------------------|
A|-7777777777777777--44-4-44-444--00-00000000--------------------------|
D|-7777777777777777--44-4-44-444--00-00000000--------------------------|
                                                                       |
Guitar 2                                                               | x 1
e|---------------------------------------------------------------------|
B|---------------------------------------------------------------------|
G|-------66-77-99-77-6----------66-77-99-77-6----------66-77-99-77-6---|
D|-77-99---------------9--77-99---------------9--77-99---------------9-|
A|---------------------------------------------------------------------|
D|---------------------------------------------------------------------|



Guitar 1			
e|--------------------------------------------------------|
B|--------------------------------------------------------|
G|--------------------------------------------------------|
D|---222222-2~--444444-444-000000-0-000000-0--------------|
A|---222222-2~--444444-444-000000-0-000000-0--------------|
D|---222222-2~--444444-444-000000-0-000000-0--------------|

Cont ......     ......     ......   ......                |
e|---------------------------------------------9----------|
B|----------------------------------------10-9---10-9-----|
G|--------------------------------------------------------|
D|---222222-2~--444444-444-0-0-0-0-0-0-0------------------|
A|---222222-2~--444444-444-0-0-0-0-0-0-0------------------|
D|---222222-2~--444444-444-0-0-0-0-0-0-0------------------|
     ......     ......     . . . . . .                    |
Guitar 2                                                  | x 1
B|--------------------------------------------------------|
G|--------------------------------------------------------|
D|---222222-2~--444444-444-000000-0-000000-0--------------|
A|---222222-2~--444444-444-000000-0-000000-0--------------|
D|---222222-2~--444444-444-000000-0-000000-0--------------|
Cont ......     ......     ......   ......                |
e|--------------------------------------------------------|
B|--------------------------------------------2-----------|
G|----------------------------------------2-1---2-1-------|
D|---222222-2~--444444-444-0-0-0-0-0-0-0------------------|
A|---222222-2~--444444-444-0-0-0-0-0-0-0------------------|
D|---222222-2~--444444-444-0-0-0-0-0-0-0------------------|
     ......     ......     . . . . . .                    


Guitar 1			
e|--------------------------------------------------------------|
B|--------------------------------------------------------------|
G|--------------------------------------------------------------|
D|-44-444-44-44444---22-22-22-22-22-22-22-22--00-000000000------|
A|-44-444-44-44444---22-22-22-22-22-22-22-22--00-000000000------|
D|-44-444-44-44444---22-22-22-22-22-22-22-22--00-000000000------|
Cont                 ..    ..    ..    ..                       |
e|--------------------------------------------------------------|
B|--------------------------------------------------------------|
G|--------------------------------------------------------------|
D|-44-77-99-12121212--44-444-44-44444---22-22-22-22-22-22-22-22-|
A|-44-77-99-12121212--44-444-44-44444---22-22-22-22-22-22-22-22-|
D|-44-77-99-12121212--44-444-44-44444---22-22-22-22-22-22-22-22-|
Cont                                    ..    ..    ..    ..    |
e|--------------------------------------------------------------|
B|--------------------------------------------------------------|
G|--------------------------------------------------------------|
D|-00-000000000-44-77-99-12121212-44-77-99-12121212-12------77--|
A|-00-000000000-44-77-99-12121212-44-77-99-12121212-12(x32)-77--|
D|-00-000000000-44-77-99-12121212-44-77-99-12121212-12------77--|
                                                                |
Guitar 2                                                        | X 1
e|--------------------------------------------------------------|
B|--------------------------------------------------------------|
G|-22-222-22----------------------------------------------------|
D|------------44444-----77----44----22----44--77-777777777------|
A|--------------------------------------------------------------|
D|--------------------------------------------------------------|
Cont                                                            |
e|--------------------------------------------------------------|
B|--------------------------------------------------------------|
G|--------------------22-222-22---------------------------------|
D|-44-77-99-12121212-------------44444-----77----44----22----44-|
A|--------------------------------------------------------------|
D|--------------------------------------------------------------|
Cont                                                            |___________
e|--------------------------------------------------------------------------|
B|--------------------------------------------------------------------------|
G|--------------------------------------------------------------------------|
D|-77-777777777-44-77-99-12121212-44-77-99-12121212-7(x8)-6(x8)-4(x8)-3(x8)-|
A|--------------------------------------------------------------------------|
D|--------------------------------------------------------------------------|

Bridge one is here no guitar accept some feedback


Guitar 1			
e|--------------------------|
B|--------------------------|
G|--------------------------|
D|----------22-222-4444444--|
A|----------22-222-4444444--|
D|-///////--22-222-4444444--|
                            |
Guitar 2                    | 
e|--------------------------|
B|--------------------------|
G|--------------------------|
D|----------22-222-4444444--|
A|----------22-222-4444444--|
D|-///////--22-222-4444444--|


[ Tab from: http://www.guitartabs.cc/tabs/b/boys_night_out/i_got_punched_in_the_nose_for_sticking_my_face_into_other_peoples_buisness_tab.html ]
Guitar 1			
e|-----------------------------------------------------------------|
B|-----------------------------------------------------------------|
G|-----------------------------------------------------------------|
D|-7777777777777777--44-4-44-444--00-00000000--22-2-2-2-44444444---|
A|-7777777777777777--44-4-44-444--00-00000000--22-2-2-2-44444444---|
D|-7777777777777777--44-4-44-444--00-00000000--22-2-2-2-44444444---|
                                                                   |
Guitar 2                                                           | x 1
e|-----------------------------------------------------------------|
B|-----------------------------------------------------------------|
G|-------66-77-66-------------------------------------6------------|
D|-77-99----------99-7-9-7-----------------------77-9---9-7-777-99-|
A|-------------------------9-999-999-7-4-444-444-------------------|
D|-----------------------------------------------------------------|



Guitar 1			
e|---------------------------------------------------------------------|
B|---------------------------------------------------------------------|
G|---------------------------------------------------------------------|
D|-7777777777777777--44-4-44-444--00-00000000--------------------------|
A|-7777777777777777--44-4-44-444--00-00000000--------------------------|
D|-7777777777777777--44-4-44-444--00-00000000--------------------------|
                                                                       |
Guitar 2                                                               | x 1
e|---------------------------------------------------------------------|
B|---------------------------------------------------------------------|
G|-------66-77-99-77-6----------66-77-99-77-6----------66-77-99-77-6---|
D|-77-99---------------9--77-99---------------9--77-99---------------9-|
A|---------------------------------------------------------------------|
D|---------------------------------------------------------------------|



Guitar 1			
e|--------------------------------------------------------|
B|--------------------------------------------------------|
G|--------------------------------------------------------|
D|---222222-2~--444444-444-000000-0-000000-0--------------|
A|---222222-2~--444444-444-000000-0-000000-0--------------|
D|---222222-2~--444444-444-000000-0-000000-0--------------|
Cont ......     ......     ......   ......                |
e|--------------------------------9-----------------------|
B|-----------------------------------------10--------9----|
G|--------------------------------------------------------|
D|---222222-2~--444444-444-000000---000000----000000------|
A|---222222-2~--444444-444-000000---000000----000000------|
D|---222222-2~--444444-444-000000---000000----000000------|
Cont ......     ......     ......    ......   ......      |
e|--------9--------9---------------------------9--------9-|
B|--------------------------10--------9-------------------|
G|--------------------------------------------------------|
D|-000000---000000---000000----000000---000000---000000---|
A|-000000---000000---000000----000000---000000---000000---|
D|-000000---000000---000000----000000---000000---000000---|
Co ......   ......   ......    ......   ......   ......   |___
e|------------------------------------------------------------|
B|--------10--------9--------999--------9--------999--------9-|
G|------------------------------------------------------------|
D|-000000----000000---000000-----000000---000000-----000000---|
A|-000000----000000---000000-----000000---000000-----000000---|
D|-000000----000000---000000-----000000---000000-----000000---|
Co ......    ......   ......     ......   ......     ......___|
e|--------------------------------------------------------|
B|--------999--------9--------9~--------------------------|
G|--------------------------------------------------------|
D|-000000-----000000---000000-----------------------------|
A|-000000-----000000---000000-----------------------------|
D|-000000-----000000---000000-----------------------------|
   ......     ......   ......                             |
Guitar 2                                                  | x 1
e|--------------------------------------------------------|
B|--------------------------------------------------------|
G|--------------------------------------------------------|
D|---222222-2~--444444-444-000000-0-000000-0--------------|
A|---222222-2~--444444-444-000000-0-000000-0--------------|
D|---222222-2~--444444-444-000000-0-000000-0--------------|
Cont ......     ......     ......   ......                |
e|--------------------------------------------------------|
B|--------------------------------2-----------------------|
G|-----------------------------------------2---------1----|
D|---222222-2~--444444-444-000000---000000----000000------|
A|---222222-2~--444444-444-000000---000000----000000------|
D|---222222-2~--444444-444-000000---000000----000000------|
Cont ......     ......     ......    ......   ......      |
e|--------------------------------------------------------|
B|--------2--------2---------------------------2--------2-|
G|--------------------------2---------1-------------------|
D|-000000---000000---000000----000000---000000---000000---|
A|-000000---000000---000000----000000---000000---000000---|
D|-000000---000000---000000----000000---000000---000000---|
Co ......   ......   ......    ......   ......   ......   |___
e|------------------------------------------------------------|
B|------------------------------------------------------------|
G|--------2---------1--------111--------1--------111--------1-|
D|-000000----000000---000000-----000000---000000-----000000---|
A|-000000----000000---000000-----000000---000000-----000000---|
D|-000000----000000---000000-----000000---000000-----000000---|
Co ......    ......   ......     ......   ......     ......___|
e|--------------------------------------------------------|
B|--------------------------------------------------------|
G|--------111--------1------------------------------------|
D|-000000-----000000---000000-----------------------------|
A|-000000-----000000---000000-----------------------------|
D|-000000-----000000---000000-----------------------------|
   ......     ......   ......                             |



Guitar 1			
e|--------------------------------------------------------|
B|--------------------------------------------------------|
G|--------------------------------------------------------|
D|--------------------------------------------------------|
A|--------------------------------------------------------|
D|--------------------------------------------------------|
                                                          |
Guitar 2   (this guitar has a flanger pedal on it)        | 
e|--------------------------------------------------------|
B|---(9-9-9-9h10~)---12h14-141414-12-10-12/17-171717-1414-|
G|--------------------------------------------------------|
D|--------------------------------------------------------|
A|--------------------------------------------------------|
D|--------------------------------------------------------|
Cont                                                      | X 2 Stuff in brackets first time only
e|--------------------------------------------------------|
B|-12h14-141414-1212-1210-101010101010-------------------|
G|--------------------------------------------------------|
D|--------------------------------------------------------|
A|--------------------------------------------------------|
D|--------------------------------------------------------|
Cont                                                      |  ^
e|--------------------------------------------------------|  |
B|-99999-9h10-1010-99999-9h10-1010-999999-77777-----------|  |
G|----------------------------------------------77777-777-|  |
D|--------------------------------------------------------|  |
A|--------------------------------------------------------|  |
D|--------------------------------------------------------|  |
Cont                                                      |  |
e|--------------------------------------------------------|  |
B|-99999999-10101010-10-10/12-1212-12/14-141414-1412-----|  |
G|--------------------------------------------------------|  |
D|--------------------------------------------------------|  |
A|--------------------------------------------------------|  |
D|--------------------------------------------------------|  | This part is only in the old 
Cont                                                      |  | unreleased version of this song 
e|--------------------------------------------------------|  | and the guitar in the new one is
B|-1212-12-1210-101010-101010----------------------------|  | too difficult to figure out.
G|--------------------------------------------------------|  |
D|--------------------------------------------------------|  |
A|--------------------------------------------------------|  |
D|--------------------------------------------------------|  |






Cont                                                      |  |
e|--------------------------------------------------------|  |
B|-99999-9h10-1010-99999-9h10-1010-999999-77777-----------|  |
G|----------------------------------------------77777-777-|  |
D|--------------------------------------------------------|  |
A|--------------------------------------------------------|  |
D|--------------------------------------------------------|  v



Guitar 1			
e|----------------------------------------------------------------------|
B|----------------------------------------------------------------------|
G|----------------------------------------------------------------------|
D|-444444444444----777777777777----222222222222----555555555555---5-5-5-|
A|-444444444444----777777777777----222222222222----555555555555---5-5-5-|
D|-444444444444----777777777777----222222222222----555555555555---5-5-5-|
                                                                        |
Guitar 2                                                                | X 4
e|-4/5-5555-52-2222-2/9-9999-9/5-5555-4/5-5555-52-2222-2/3-3333-3-3-3-|
B|----------------------------------------------------------------------|
G|----------------------------------------------------------------------|
D|----------------------------------------------------------------------|
A|----------------------------------------------------------------------|
D|----------------------------------------------------------------------|
Comments