Boys Night Out - Composing Chords & Tabs

 

Composing Chords & Tabs

Boys Night Out Chords & Tabs

Version: 1 Type: Tab 0 ratings
1 star 2 stars 3 stars 4 stars 5 stars
comments

Composing Tab

"Composing": Off the new Boys Night Out album "TRAINWRECK" which comes out on July 26.

Tabbed By: Spencer S

This tab does not show you how many times to play each chord, its easy to figure it out
yourself.  Its not perfect but I gave it my best shot.

Intro 1 (Some variations of this):
e|-----9-7-7h9-9-12-9-7-4-2-0-|
B|----------------------------|
G|----------------------------|
D|----------------------------|
A|----------------------------|
E|----------------------------|

Intro 2 ("It's all about, the song in my head..."):
e|---------------------------------|
B|---------------------------------|
G|--(6)----------------(5)---------|
D|---6------------------5----------|
A|---4----4----2----7---3----------|
E|--------2----4----5--------------|

Verse:

1st Guitar
"These days they're allowing visitation, to aid in my rehabilitation."
e|-----------|
B|-----------|
G|--2--------|
D|--2----2---|
A|--0----2---|
E|-------0---|

2nd Guitar
"These days they're allowing visitation, to aid in my rehabilitation."
e|--------------------------------------------|
B|--------------------------------------------|
G|--9/---11/---9/---6------13/--11/---9-------|
D|--x-----x----x----x-------x----x----x-------|
A|--7/----9/---7/---4------11/---9/---7-------|
E|--------------------------------------------|

1st Guitar
"To make these days mean so much more to me."
e|---------------|
B|---------------|
G|--6--4---------|
D|--6--4--4------|
A|--4--2--4------|
E|--------2--2h4-|

2nd Guitar
"To make these days mean so much more to me."
e|----------------------------|
B|----------------------------|
G|--6--4---11-----13/---------|
D|--x--x------9----x----------|
A|--4--2----------11/---7h9---|
E|----------------------------|

Repeat 1st and 2nd Guitars for:
"I beg friends and family for forgiveness
And now for the first time together we'll witness
Together we'll live this song I've been hearing incessantly
So come sing with me."

1st Guitar:
"Through these poison pills and chemicals
I know that you'll do something beautiful."
e|-----------|
B|-----------|
G|--2--------|
D|--2----2---|
A|--0----2---|
E|-------0---|

2nd Guitar:
"Through these poison pills and chemicals
I know that you'll do something beautiful."
e|---------------------------------------------|
B|---------------------------------------------|
G|--9/---11/---9/---6------13/--11/---16-------|
D|--x-----x----x----x-------x----x-----x-------|
A|--7/----9/---7/---4------11/---9/---14-------|
E|---------------------------------------------|

1st Guitar:
"And brilliant the release will be instant
I'm sorry it's the only way"
e|-------------------------|
B|-------------------------|
G|--6--4--6----------------|
D|--6--4--6--4--2--4-------|
A|--4--2--4--4--2--4--4/6--|
E|-----------2--0--2--2/4--|

2nd Guitar:
"And brilliant the release will be instant
I'm sorry it's the only way"
e|-----------------------------------------------------------------|
B|--------14----17-14------/21-21-21-21-19-17-14-------------------|
G|--13-13----13-------13---------------------------13--11--9-------|
D|--------------------------------------------------x---x--x-------|
A|-------------------------------------------------11---9--7--7h9--|
E|-----------------------------------------------------------------|

Pre-Chorus (Both Guitars):
e|-------------|
B|-------------|
G|--2~---------|
D|--2~----2~---|
A|--0~----2~---|
E|--------0~---|

1st Guitar:
e|------------|
B|---8-6------|
G|-------8-5--|
D|------------|
A|------------|
E|------------|
[ Tab from: http://www.guitartabs.cc/tabs/b/boys_night_out/composing_tab.html ]
2nd Guitar:
e|----------------|
B|---16-14--------|
G|---------16-13--|
D|----------------|
A|----------------|
E|----------------|




Chorus:

1st Guitar
"It's all about the song in my head
The one where the audience is all dead"
e|---------------------------------|
B|---------------------------------|
G|--(6)----------------(5)---------|
D|---6------------------5----------|
A|---4----4----2----7---3----------|
E|--------2----4----5--------------|

2nd Guitar
e|-------------------------|
B|-------------------------|
G|--13/16-11--13/16-11-11--|
D|---x--x--x---x--x--x--x--| Bend the last 9x11
A|--11/14--9--11/14--9--9--|
E|-------------------------|

Repeat this a few times.

Pre-Breakdown:
"Aaaaaaaaaaaaallllll dead."
e|---------------|
B|---------------|
G|--5-----6-6-6--|
D|--5-----6-6-6--|
A|--3-----4-4-4--|
E|---------------|

Breakdown (Rythm also tabbed):
"So come over to my house
Catch up over dinner
We are having strychnine and sirloin
Port wine and paint thinner
You'll convulse through the chorus
It's the song of the sinner"

1st and 2nd Guitar(If there is a * by it, it means the 2nd guitar plays theses chords only):
e|-----------------------------------------------|
B|-----------------------------------------------|
G|----4-----6------------------------------------|
D|----4--6--6--2*-2*-2*-2*-----------2-4-4-4-4-4-|
A|----2--6--4--2--2--2--2--4-2-4-2-2-3-2-2-2-2-2-|
E|-------4-----0--0--0--0--2-0-2-4-4-------------|

e|------------------------------------------------|
B|------------------------------------------------|
G|--6-6-6--4-----6--------------------------------|
D|--6-6-6--4--6--6--2-2-2-2------------2----------|  both guitars
A|--4-4-4--2--6--4--2-2-2-2--4-2-4-2-2-3-4-4/6/4--|
E|------------4-----0-0-0-0--2-0-2-4-4---2-2/4/2--|

e|--------------------------------------------|
B|--------------------------------------------|
G|--6-6-6--4-----6---------------------------------|
D|--6-6-6--4--6--6--2-2-2-2------------2-4-4-4-4-4-| both guitars
A|--4-4-4--2--6--4--2-2-2-2--4-2-4-2-2-3-2-2-2-2-2-|
E|------------4-----0-0-0-0--2-0-2-4-4-------------|

e|-------------------------------------------|
B|-------------------------------------------|
G|--6-6-6--4-----6--------------------------------|
D|--6-6-6--4--6--6--2-2-2-2------------2----------|
A|--4-4-4--2--6--4--2-2-2-2--4-2-4-2-2-3-4-4/6/4--| both guitars
E|------------4-----0-0-0-0--2-0-2-4-4---2-2/4/2--|

e|--------------------------------------------|
B|--------------------------------------------|
G|--6-6-6--4-----6---------------------------------|
D|--6-6-6--4--6--6--2-2-2-2------------2-4-4-4-4-4-|
A|--4-4-4--2--6--4--2-2-2-2--4-2-4-2-2-3-2-2-2-2-2-| both guitars
E|------------4-----0-0-0-0--2-0-2-4-4-------------|

Breakdown 2:
"As I slowly clear the table
I know that this won't be the last time
It won't be the last time
We wrote this song
And the world will sing it
To me it's everything to me it's everything to me it's
On every corpse I see her face,my love, my heart
I hear her laughter and she's still alive
It's like she's still alive
It's in the body I'm holding
As we make love
My heart breaks every time I dismember the flesh
Hide the evidence and start again because"

1st Guitar:
e|-----------------------------------|
B|-----------------------------------|
G|--6-----------------------------2--|
D|--6--2--------------------------2--| Do this twice.
A|--4--2---------(4)---------(4)--0--|
E|-----0--7~--4~--2~--7~--4~--2~-----|

2nd Guitar: Im not sure what it is.  I play it as variations of Intro one.
However he does play the (7~--4~--2~) with the 1st guitar.

Outro:
"It's all about the song in my head
The one where the audience is all dead."

Both guitars play the chorus over and over.

End:
e|-----|
B|-----|
G|--6~-|
D|--6~-|
A|--4~-|
E|-----|
Comments