Boys Night Out - Anatomy Of The Journey Chords & Tabs

 

Anatomy Of The Journey Chords & Tabs

Boys Night Out Chords & Tabs

Version: 2 Type: Tab 0 ratings
1 star 2 stars 3 stars 4 stars 5 stars
comments

Anatomy Of The Journey Tab

Title: The Anatomy of the journey
Artist: Boys Night Out
Album: Make yourself sick
Tab by: Hal McMahon
corrections/comments: halmcmahon@hotmail.com
Droped D  (dadgbe)

e-----------------------------------------------------------------------|
b-----------------------------------------------------------------------|
g-----------------------------------------------------------------------|
d-----0------8-7-33/2-2---3-2-3--0-0-0-0--------------------------------|2x
a-----0------8-7-33/2-2---3-2-3--0-0-0-0--------------------------------|
d-----0------8-7-33/2-2---3-2-3--0-0-0-0--------------------------------|


e----------------------------------------------------------------------------|
b----------------13-10-----11-10------------------------13-11-10-11-10p11-10-|
g-----------9-10-----------------10---------------9-10-9---------------------|
d-----0000-------------88-----------3----2~--000-----------------------------|
a-----0000-------------88-----------3x15-2~--000-----------------------------|
d-----0000-------------88-----------3----2~--000-----------------------------|


e---------------------------------------------------------------------|
b-----------------13-11-11-10---------------15-13-11-10---------------|
g----------9-10-9-------------10-----9-10-9-------------10------------|
d-----333------------------------888----------------------------------|
a-----333------------------------888----------------------------------|
d-----333------------------------888----------------------------------|

[ Tab from: http://www.guitartabs.cc/tabs/b/boys_night_out/anatomy_of_the_journey_tab_ver_2.html ]
e---------------------------------------------------------------|
b---------------------------------------------------------------|
g----------------------9-8-0------------------------------------|
d-----88x-8-8~-----000-------33-33/8888888----00----------------|
a-----88x-8-8~-----000-------33-33/8888888----00----------------|
d-----88x-8-8~-----000-------33-33/8888888----00----------------|

e---------------------------------------------------------------|
b---------------------------------------------------------------|
g---------9-8-0---------------------9-8-0-----------------------|
d-----000-------33-33/8888888----00-------33-33/8888888---------|
a-----000-------33-33/8888888----00-------33-33/8888888---------|
d-----000-------33-33/8888888----00-------33-33/8888888---------|

e---------------------------------------------------------------|
b---------------------------------------------------------------|
g---------9-8-0---------------------9-8-0-----------------------|
d-----000-------33-33/8888888----00-------33-33/8888888----0~---|
a-----000-------33-33/8888888----00-------33-33/8888888----0~---|
d-----000-------33-33/8888888----00-------33-33/8888888----0~---|

It's not the whole thing but the rest is pretty simple.


lyrics:
Is it still you and me against the world? All I've got to lose are my teeth. We're gonna 
it down together, tonight.
We're gonna burn this town to the ground and laugh over the flames.

Collapsible sentiment fills our lives.
I've burned pages behind me and mountains before.
Watch us break at the waist and bleed from our fingertips...
nailing our coffins to our outstretched arms.

I'm lost in a haze of myself.
My memory is too filled with fists
And my hands are too weak from writing down our lives.
Here we are...watch us go.
Four shots fire out, cold and hollow
and your eyes give in to that shattered glass shine.
So I call out and I follow.
Passion can't apply when we're so drained and pale.
Comments