Boys Like Girls - Heroheroine Chords & Tabs

 

Boys Like Girls Chords & Tabs

Version: 1 Type: Tab 0 ratings
1 star 2 stars 3 stars 4 stars 5 stars
comments

Heroheroine Tab

i havent figured it all out....but ive got some parts to it

standard tuning

intro
-----------------------------|
--------------0-5------------|
-------------5-5-------------|55x
-----------------------------|
-----------------------------|

bridge
------------------------------------------|
------------------------------------------|
------------------------------------------|
------------------------------------------|x2
--5-5-5-5-5-7-7-7-7-7-3-3-3-3-3-3-3-3-3-3-|
--5-5-5-5-5-7-7-7-7-7-3-3-3-3-3-3-3-3-3-3-|
--3-3-3-3-3-5-5-5-5-5-1-1-1-1-1-1-1-1-1-1-|


introx12

wait a bit

then
[ Tab from: http://www.guitartabs.cc/tabs/b/boys_like_girls/heroheroine_tab.html ]
------------------------------|
------------------------------|
------------------------------|
-------------------9----------|palm mutex32
-------------------9----------|
-------------------7----------|

then the bridge

then the introx6

then
-----------------------------------------------------------------------|
-----------------------------------------------------------------------|
-----------------------------------------------------------------------|
-----------------------------------------------------------------------|
---------3------3-3-3-3-3-3-3-3-5-5-5-5-5-5-5-5-3-3-3-3-3-3-3-3-5------|
---------3x20---3-3-3-3-3-3-3-3-5-5-5-5-5-5-5-5-3-3-3-3-3-3-3-3-5x8----|x1
---------1------1-1-1-1-1-1-1-1-3-3-3-3-3-3-3-3-1-1-1-1-1-1-1-1-3------|


i havent figured anything else out yet
Comments